Accordium Delectus Подборка аккордов
 
Главная > С > Скобля Олег > По иконе катится слеза

Олег Скобля: По иконе катится слеза


В оригинале на 1 тон выше (F#m).

Можно проиграть этими же аккордами, поставив каподастр на 2-ом ладу


Вступление (примерный вариант перебора):

Em
E|-----------------|
H|-------0-------0-|
G|-----0---0---0---|
D|---2-------2-----|
A|-----------------|
         E|-0---------------| - 4 раза


Em                               Am                   Em     
По иконе катится слеза Божьей матери,
H7                       Em      
   Колокольный звон...
Em                                        Am                       Em        
На воздусях присно ты стоишь в синей мантии,
   H7             Em   
Над горой Афон

Припев:

Am                                                  Em                                  
После долгих дней греха, в прощённое воскресенье,
     H7                                      C              
Со слезами на глазах моих,
Am                                              Em                                      
/В покаянии против царских врат, преклонив колени,
H7                                   Em  
              Я шепчу: "Игуменья, прости!"/ - 2 раза


Синий дым кадильный, как цветы, в бережных руках
Ангелы несут
Святогорцев белые скиты свечками горят,
За грядущих в путь

Припев.

Я стою: от множества грехов не поднять мне глаз
На пречистый лик
Плачет матерь Божия о том, что живём не так,
Как Господь учил

Припев.

Проигрыш:

  Em                Am               Em           H7     Em      
E|-0-3--0-3--0-3-----5-5--------------0-3--0-3--0-2----2--3-2-0-|
H|-0-----------------5----8-7---------0-------------------------|
G|-0-----------------5---------9-8----0-------------------------|
D|--------------------------------------------------------------|
A|-------------------0------------------------------------------|
E|-0----------------------------------0-------------------------|

  Em                Am               Em          H7          Em                
E|-7-7--7-7--5-7-----5-5---------5----3-3--2-3---2-2--------------------------|
H|-8-----------------5----8-7--8------0---------------4----4--5-5-------------|
G|-9-----------------5----------------0-----------------4----------4----------|
D|-------------------------------------------------------------------5--4-5-2-|
A|-------------------0--------------------------------------------------------|
E|-0----------------------------------0---------------------------------------|

Am           Em               H7             C               
E|---0-----0------------------------------------------------|
H|-2---2-----------8--7--5-------0-2-4--7----8-8-8-5-5-5--8-|
G|-------2-----------------------0-2-4--8----8-8-8-5-5-5--9-|
D|--------------7>9--7--5---5-------------------------------|
A|----------------------------------------------------------|
E|----------------------------------------------------------|

  Am                     Em                              
E|-5-5---------5--5-------3-3--2-3--2~3~2-0-2-0~2~0-----|
H|-5----8-7--8------8--7--0-------------------------4-5-|
G|-5----------------------0-----------------------------|
D|------------------------------------------------------|
A|-0----------------------------------------------------|
E|------------------------0-----------------------------|

H7                      Em              
E|------------------------------------3----|
H|-4-4---4---------4----------------5----5-|
G|-----4----4----4----4-----------4--------|
D|------------4----------2----2>5----------|
A|-------------------------2---------------|
E|-----------------------------------------|

  Am                  Em                H7                          Em  
E|-5-5---------5-------7-7--5-7--8-7----7-8----------------------------|
H|-5----8-7-8-----8----8---------------------4-5-------5-4-------------|
G|-5-------------------9--------------------------4-5------5-4---------|
D|-------------------------------------------------------------5-4-5-2-|
A|-0-------------------------------------------------------------------|
E|---------------------0-----------------------------------------------|


По иконе катится слеза Божьей матери,
Колокольный звон...
На воздусях присно ты стоишь в синей мантии,
Над горой Афон

Припев.

Окончание:

  Am                  Em             H7               C            
E|-5---------5---------3--2-3-------------------------------------|
H|-5--8-7--8----8--7---0-------4--5-----4---5---7--4-----5---7--8-|
G|-5-------------------0------------------------------------------|
D|-------------------------------------4---5---7---4----5----7--9-|
A|-0--------------------------------------------------------------|
E|---------------------0------------------------------------------|

  Am           Em                              H7                Em  
E|-5---------5----7-7-5-5-----------------------------------------0-|
H|-5--8-7--8--------------8-8-7-7-5-5-7-7-8-5---7-7----------7----0-|
G|-5-------------------------------------------------8----8-------0-|
D|-----------------------------------------------------9----------2-|
A|-0--------------------------------------------------------------2-|
E|----------------------------------------------------------------0-|
 


 
Последние комментарии

"Замечательная.."
 

"В припеве вместо B7 напрашивается Bb"
 

"Волшебно-ЖИВОЕ иполнен е"
 

"Очень симпатичная песня! Простые слова с глубоким смыслом. Хочется петь и петь.👍"
 

"Красивая песня."
Статистика

Онлайн всего: 44
Гостей: 43
Пользователей: 1
Justas
Вход на сайт