Accordium Delectus Подборка аккордов
 
Главная > С > Секрет > Алиса

Бит-квартет Секрет: Алиса



В оригинале на 1 тон выше (F#m).

Можно проиграть этими же аккордами, поставив каподастр на 2-ом ладу

         Em       D     Am/C  H7   
Алиса умеет вязать,
  Em        D          Am/C  H7  
Алиса рисует в альбо-о-мах,
        Em            D         Am/C  H7  
Алису в гостях не застать,
    Em         D         Am/C   H7 
Алиса почти всегда до-о-ма

Припев:

E              Am                                
Ах, Алиса, как бы нам встретиться,
  D             G            H7  
Как поболтать обо всём!
E                Am                        
Ах, Алиса, просто не терпится,
D                         G        C7         F         H7      
   Ах, побыть в доме твоём с тобою вдвоём...


Алиса не любит гостей,
Алиса одна вечерами,
Алиса сидит на тахте
С коробкой конфет и с мечтами

Припев.

А-А-А-Алиса и дня
Не может прожить без ирисок
Алиса - совсем как дитя,
Но лучше всех А-А-Алиса!

Припев:

Ах, Алиса, как бы нам встретиться,
Как поболтать обо всём!
Ах, Алиса, просто не терпится,
D                       G         C7         F           H7         E         
Ах, побыть в доме твоём с тобою, с тобою вдвоём...

Окончание:

    E           Am              D        G      H7 
E|-----------------------------------------------|
H|-----------------------------------------------|
G|-4-------------------4--2------------------2---|
D|----6--4--2-------2-------5--4----2---5--5---4-|
A|-------------3--5-------------------5----------|
E|-----------------------------------------------|
    E           Am              D        G      C7 
E|-----------------------------------------------|
H|-----------------------------------------------|
G|-4-------------------4--2-------------2--------|
D|----6--4--2-------2-------5--4----2------5-4-2-|
A|-------------3--5-------------------5----------|
E|-----------------------------------------------|
        F      H7         E  
E|-----------------------|
H|-----------------------|
G|--------2--------------|
D|-2-3--5---2--1--4--4>6-|
A|-----------------------|
E|-----------------------|

Бой на гитаре (примерный вариант):

 
Поделись с друзьями:
 
 
Последние комментарии

"Правильные аккорды. Я так же подобрал - только в ля миноре. А здесь не в ля, а фа миноре."
 

"Класс!!!!!!!!!!"
 

"Спасибо ОГРОМНОЕ! Удачи Вам!"
 

"ок"
 

"Отличная песня!!"
Настройка гитары
1-ая струна E (ми)  

2-ая струна H (си)  

3-я струна G (соль) 

4-ая струна D (ре) 

5-ая струна A (ля) 

6-ая струна E (ми) 
Статистика

Онлайн всего: 13
Гостей: 13
Пользователей: 0
Вход на сайт