Accordium Delectus Подборка аккордов
 
"
Главная > Д > Дроздов Сергей > Не надо войны

Сергей Дроздов (Синяя птица): Не надо войны


Вступление:

 

  Em         H7/F#       Em/G        E/G#         Am          H7          Em         H7        

E|--------0-----------2-----------0-----------0-----------0-----------2-----------0----------2-|

H|------0-----------0-----------0-----------0-----------1-----------0-----------0----------0---|

G|----0-----------2-----------0-----------1-----------2-----------2-----------0----------2-----|

D|---------------------------------------------------------------------------------------------|

A|-------------------------------------------------0-----------2-----------------------2-------|

E|-0-----------2-----------3-----------4-----------------------------------0-------------------|

    Em        H7/F#       Em/G         E/G#       Fmaj7         H7          Em         H7       

E|--------0-----------2-----------0-----------0-----------0-----------2-----------0----------2-|

H|------0-----------0-----------0-----------0-----------1-----------0-----------0----------0---|

G|----0-----------2-----------0-----------1-----------2-----------2-----------0----------2-----|

D|-------------------------------------------------3-------------------------------------------|

A|-------------------------------------------------------------2-----------------------2-------|

E|-0-----------2-----------3-----------4-----------------------------------0-------------------|



                   H7          Em           H7/F#   Em/G Em
Мне встречать довелось паренька одного -
                             Am/F#     H7       Em   H7
Вроде нет тридцати, а седого всего
                                 Em          H7/F#    Em/G    E/G#
Вроде ехал с войны, возвращался домой,
                          Am Am/F#                        H7   
Будто только сейчас           со Второй Мировой


                  D            G D                       G   E/G#   
Я подумал тогда: "Не кончалась она,
                       Am               H7       Em  
Никогда не кончалась в России война!
                      D            G D                        G   E/G# 
Только в этой войне, что ни день, то бои,
                        Am Am/G     H7      
Где своих убивают      свои!"

Припев:

                   Em       D            G     
Не надо войны, не надо смертей!
                Am/F#    H7         Em  
Зачем же сиротами делать детей?
    H7        Em         D           G  
Зачем эти беды и слёзы нужны?
                     F       H7         Em   
Не надо войны, не надо войны!

Проигрыш: Em  H7/F#  Em/G  H7 - 2 раза 

Разве наши отцы уходили на фронт,
Чтоб родную страну мы пустили в расход?
Разучились любить, развели воронья!
Так за что же страдаешь, Россия моя?

Толи крест на тебе, толи ты на кресте,
Искупаешь грехи непутёвых детей
Как удары хлыстом, принимаешь бои,
Где своих убивают свои!


Припев.

Проигрыш: Em  H7/F#  Em/G  E/G#  Am  E  Am/C  E7    G  D  C  H7sus4  H7 - 2 раза

Припев - 2 раза.


Окончание:

               

         Em        H7/F#       Em/G         E/G#       Fmaj7         H7          Em              

E|--------0-----------2-----------0-----------0-----------0-----------2-----------0-|

H|------0-----------0-----------0-----------0-----------1-----------0-----------0---|

G|----0-----------2-----------0-----------1-----------2-----------2-----------0-----|

D|-------------------------------------------------3--------------------------------|

A|-------------------------------------------------------------2--------------------|

E|-0-----------2-----------3-----------4-----------------------------------0--------|

Ещё песни:

 

 
 
Последние комментарии

"Одна из самых моих любимых песен"
 
Александр Речкин «Юта: Тополя

"Звука нет"
 

"По моему эта песня написана в 1982 году. Слова написал парень из Ростова на Дону , а музыку из Горького! И мне кажется впервые прозвучала в санатории!!!"
 
Игорь Бурдин «Ассоциация: Я - деревня

"Ностальджи. е-е"
 

"отлично!"
Настройка гитары
1-ая струна E (ми)  

2-ая струна H (си)  

3-я струна G (соль) 

4-ая струна D (ре) 

5-ая струна A (ля) 

6-ая струна E (ми) 
Статистика

Онлайн всего: 77
Гостей: 77
Пользователей: 0
Вход на сайт