Accordium Delectus Подборка аккордов
 
Главная > B > Bravo Soledad > Hasta Siempre Comandante Che Guevara

Soledad Bravo: Hasta Siempre Comandante Che Guevara


Смотреть в тональности Am


Вступление: G#m C#m D# - 2 раза

G#m  C#m  D#               
     Aprendimos a quererte
G#m C#m      D#           
    Desde la historica altura
G#m                             F#      
Donde el sol de tu bravura
E                              D#        
Le puso cerco a la muerte

Припев:

G#m C#m        D#     
Aqui    se queda la clara
G#m       C#m           D#          
La entrenable transparencia
G#m                   F#      
De tu querida presencia
            E                 D#   
Comandante Che Guevara

Проигрыш: G#m C#m D# - 2 раза

Tu mano gloriosa y fuerte
Desde la historia dispara
Cuando todo Santa Clara
Se despierta para verte

Припев.

Проигрыш: G#m C#m D# - 2 раза

Vienes quemando la brisa
Con soles de primavera
Para plantar la bandera
Con la luz de tu sonrisa

Припев.

Проигрыш: G#m C#m D# - 2 раза

Tu amor revolucionario
Te conduce a nueva empresa
Donde esperan la firmeza
De tu brazo libertario

Припев.

Проигрыш: G#m C#m D# - 2 раза

Seguiremos adelante
Como junto a ti seguimos
Y con Fidel te decimos:
"Hasta siempre, Comandante!"

Припев.

Перебор:

                                                   G#m                    C#m                   D#                                                                             

E|--------4---------------4---------------6-----6-----|

H|------4---------------5---------------8---8-----8---|

G|----4---------------6---------------8-------8-------|

D|----------------------------------------------------|

A|-----------------4---------------6------------------|

E|-4--------------------------------------------------|

                             G#m                        F#                                              

E|--------4-----4----------------------2-----2---|

H|------4---4-----4------------------2---2-----2-|

G|----4-------4--------------------3-------3-----|

D|-----------------------------------------------|

A|-----------------------------------------------|

E|-4---------------------------2-----------------|

     E                            D#                    

E|----------0-----0---------------------6-----6---|

H|--------0---0-----0-----------------8---8-----8-|

G|------1-------1-------------------8-------8-----|

D|------------------------------------------------|

A|------------------------------6-----------------|

E|-0----------------------------------------------|

Бой:




 


 
Последние комментарии

"тут уже в этой тональности https://youtu.be/dNlDdtJ2i6c"
 

"Скачать"
 

"Песню услышал примерно год назад, но тогда найти автора и исполнителя не удалось. А песня так понравилась, что разослал ролик всем своим друзьям, желая поделиться прекрасным! И вот, слава бобу, песня стала популярной! Браво, Виктория!"
 

"Клас"
 

"Кто авторы?Хочу сделать клип."
Статистика

Онлайн всего: 101
Гостей: 101
Пользователей: 0
Вход на сайт