Accordium Delectus Подборка аккордов
 
Главная > T > The Beatles > Can't By Me Love

The Beatles: Can't By Me Love



Вступление:

                   Em  Am   
Can't buy me lo-o-ove,
Em  Am    
Lo-o-ove,
                  Dm7  G       
Can't buy me lo-o-ove...

--------------------------------------------------------------

C7                                         
I'll buy you a diamond ring, my friend,
If it makes you feel all right
F7                               
I'll get you anything, my friend,
C7                     
If it makes you feel all right

          G                   F7                       
'Cause I don't care too much for money,
       F7                         C7 
For money can't buy me love


I'll give you all I got to give
If you say you love me too
I may not have a lot to give
Not what I've got I'll give to you

I don't care too much for money,
For money can't buy me love

Припев:

                  Em  Am  
Can't buy me lo-o-ove,
C7           C7/G       C7
Everybody tells me so
                   Em Am   
Can't buy me lo-o-ove,
    Dm7            G  
Oh no, no, no, no!


Say you don't need no diamond rings
And I'll be satisfied
Tell me that you want the kind of things
That money just can't buy

Проигрыш:

       C7                                          

E|-------------------------------------------------|

H|------8--8--8--8-6-------8--8--8-6---------------|

G|-5-8---------------8-5-8-----------8-5-3---------|

D|-----------------------------------------5-3-----|

A|---------------------------------------------6-3-|

E|-------------------------------------------------|

   F7                  C7                           

E|-------------------------------------------------|

H|----1---1--1--1--1-1--8--8--8--8-6---------------|

G|----2---2--2--2--2-2---------------8-5-----------|

D|----1---1--1--1--1-1-------------------8---------|

A|-------------------------------------------------|

E|-1-----------------------------------------------|

   G            F7            C7                     

E|-------------------------------------------------|

H|-------------------------------------------------|

G|------------------------------3------------------|

D|---4>5-4>5---5>3----3-------5----5-3-------------|

A|------------------6---6-3-6----------6-3--3------|

E|-3-----------------------------------------------|


Припев.

Say you don't need no diamond rings
And I'll be satisfied
Tell me that you want the kind of things
That money just can't buy

I don't care too much for money
Money can't buy me love

Окончание:

                   Em Am    
Can't buy me lo-o-ove,
Em  Am    
Lo-o-ove,
                  Dm7  G   C7   
   Can't buy me lo-o-o-o-ove...

Бой на гитаре (примерный вариант):

 


 
Последние комментарии

"Прекрасно подобранные аккорды!!!"
 

"Сто лет эту песню не слышала"
 

"Друг пел 20 лет назад эту песню под гитару. Оригинал даже не слышал я. Сейчас решил по словам найти эту песню. Такая классная песенка. Что-то имеет эта песня в себе. Спасибо автору!!!"
 

"А что означает если аккорд с дробью обозначен, например: G/H ?.."
 

"Есть в Нью-Орлеане дом один, известный как Солнца восход. Он многих несчастных парней загубил, божусь, я ведь сам такой."
Статистика

Онлайн всего: 42
Гостей: 42
Пользователей: 0
Вход на сайт