Accordium Delectus Подборка аккордов
 
Главная > Дуэты > Быков, Маршал: Я раскрашу вечер

Вячеслав Быков и Александр Маршал: Я раскрашу вечер



Вступление (примерный вариант, в оригинале 6-я струна настроена в Ре):

E|--------------------------------------------|

H|------------------------------------------0-|

G|------------------------5---------5-----5---|

D|---0----------------0------7----7-----7-----|

A|------0------7--8-7----0------0-----0-------|

E|-0---------0--------------------------------|


E|--------------------------------------0-----|

H|----------------------------0---------0-----|

G|-------------------------------5------5-----|

D|---0----------------------7------7----7-----|

A|------0----------------0--------------0-----|

E|-0---------0-7--8-7--3----------------------|


       Amadd9           Em7
Уводит жизнь за поворот,
               Fmaj7               C   G
Не знаю кто и что там ждёт
             Amadd9           Em7   
Возьму с собой всё то, что есть,
              Fmaj7                C     G
Кого не знал - оставлю здесь

Припев:

Dm                        Am    
Хочешь, я раскрашу вечер
Dm         G            C  
Только в тёплые тона?
Dm    G               C     
Руки положи на плечи,
     Dm Em7(2)       Amadd9
Я один          и ты одна...


Есть два пути: один простой -
Меня найти, и ты со мной
Но есть второй, второй сложней...
Подумай, что тебе важней

Припев:

Хочешь, я раскрашу вечер
Только в тёплые тона?
Руки положи на плечи,
     Dm Em7(2)      Fmaj7(2)
Я один          и ты одна...

Проигрыш:

Fmaj7(2)  Fmaj7(2)  C  C-C/H-Dm  Em7(2)  Am-Am/H-Am/C-Am

Fmaj7(2)  Fmaj7(2)  C-C/H-Dm  Em7(2)  Fmaj7(2)  G

Припев:

Хочешь, я раскрашу вечер
Только в тёплые тона?
Руки положи на плечи,
                  Dm Em7(2)         Am-Am/H-Am/C
Я один          и ты одна...
Am Dm Em7(2)       Amadd9 
Я один           и ты одна...

Бой на гитаре (примерный вариант):

 


 
Последние комментарии

"Чушнёй попахивает"
 

"СПАСИБО!!!"
 

"Красивая и правдивая песня! На все времена! Всех вспомнили,никого не забыли! Спасибо!"
 

"давно искал! спасибо!"
 

"Отличный подбор! Это тебе не на амдм хлам. Спасибо!"
Статистика

Онлайн всего: 99
Гостей: 98
Пользователей: 1
Justas
Вход на сайт