Accordium Delectus Подборка аккордов
 
Главная > Х > Харламов Владимир > Лучик света

Владимир Харламов: Лучик света



Смотреть в тональности Am


Вступление:

  Bm         D#m F            Bm     F        
E|------6------------------------------------|
H|-6--6----6--4----------6---------6-5-6-7-6-|
G|------------------5--5----5--6-------------|
D|-------------------------------------------|
A|-------------------------------------------|
E|-------------------------------------------|

  Bm        D#m     F              Bm         
E|-9---9-8-6-6-------------------------------|
H|---------------------4--4-4----------------|
G|--------------5-5------------6--5-3--------|
D|-------------------------------------------|
A|-------------------------------------------|
E|-------------------------------------------|

                        Bm 
Я смотрю в небеса,
                        D#m    
Где под куполом синим
                               F   
В небе светит звезда,
                              Bm   B7
Ярким светом горит

                        D#m
Этот лучик любви,
                     Bm      
Этот лучик надежды
                           C7 
Для меня, для тебя
F                         Bm   
Ярким светом горит

Этот лучик любви,
Этот лучик надежды
Для меня, для тебя
Ярким светом горит!

---------------------------------------------

                         Bm    
Сколько было обид,
                             D#m   
Сколько было тревог,
                                 F          Bm      B7
Но судьбу мы свою принимаем

                            D#m   
Звёзды в небе горят,
                        Bm    
Чистым светом сияют,
                               C7    F      Bm     
Той любовью, что нам не хватает

Звёзды в небе горят,
Чистым светом сияют
                                  C7    F      Bm    F#
Той любовью, что нам не хватает

Переход на 1 полутон (на 1 лад) выше (Hm)

                      Hm
Согревает сердца,
                   Em    
Зажигает любовь
                            F#               Hm      H7
Этот свет золотой, что так светит

                         Em
Для меня, для тебя
                        Hm 
Ярким светом горит
                      C#7 F#   Hm       
Этот лучик любви   и надежды!

Для меня, для тебя
Ярким светом горит
Этот лучик любви и надежды!

Проигрыш:

  Hm         Em F#            Hm     F#
E|------7------------------------------------|
H|-7--7----7--5----------7---------7-6-7-8-7-|
G|------------------6--6----6--7-------------|
D|-------------------------------------------|
A|-------------------------------------------|
E|-------------------------------------------|

   Hm       Em        F#             Hm
E|-10---10-9-7-7-----------------------------|
H|-----------------------5--5-5--------------|
G|----------------6-6------------7--6-4------|
D|-------------------------------------------|
A|-------------------------------------------|
E|-------------------------------------------|


Я смотрю в небеса,
Я смотрю на звезду,
И всем сердцем тебя понимаю

Этот лучик горит,
Ярким светом сияет,
В моё сердце любовь возвращает

Этот лучик горит,
Ярким светом сияет,
В моё сердце любовь возвращает!

Бой на гитаре (примерный вариант):


 
Последние комментарии

"Здорово конечно! Спасибо! А можно в Am перевести?"
 

"Благодарю за правильные аккорды! Низкий поклон автору песни."
 

"Красивая, но забытая песня."
 

"хороший подбор"
 

"Молодец! Не надо забывать чувство любви, оно движет Миром!!!!"
Статистика

Онлайн всего: 25
Гостей: 24
Пользователей: 1
Justas
Вход на сайт