Accordium Delectus Подборка аккордов
 
Главная > Х > Харламов Владимир > Лучик света

Владимир Харламов: Лучик света



В оригинале на полтона и на тон выше (Bm и Hm).
 
Можно проиграть этими же аккордами, поставив каподастр на 1-ом или 2-ом ладу


Вступление:

  Am          Dm  E            Am     E        
E|------5------------------------------------|
H|-5--5----5--3----------5---------5-4-5-6-5-|
G|------------------4--4----4--5-------------|
D|-------------------------------------------|
A|-------------------------------------------|
E|-------------------------------------------|

   Am        Dm      E              Am         
E|-8---8-7-5-5-------------------------------|
H|---------------------3--3-3----------------|
G|--------------4-4------------5--4-2--------|
D|-------------------------------------------|
A|-------------------------------------------|
E|-------------------------------------------|


                        Am 
Я смотрю в небеса,
                        Dm    
Где под куполом синим
                               E   
В небе светит звезда,
                              Am   A7
Ярким светом горит

                       Dm 
Этот лучик любви,
                      Am      
Этот лучик надежды
                            H7 
Для меня, для тебя
E                          Am     
Ярким светом горит

Этот лучик любви,
Этот лучик надежды
Для меня, для тебя
Ярким светом горит!

---------------------------------------------

                         Am    
Сколько было обид,
                           Dm   
Сколько было тревог,
                                 E          Am      A7
Но судьбу мы свою принимаем

                         Dm   
Звёзды в небе горят,
                        Am    
Чистым светом сияют,
                               H7    E      Am     
Той любовью, что нам не хватает

Звёзды в небе горят,
Чистым светом сияют
Той любовью, что нам не хватает!

-----------------------------------------------

Согревает сердца,
Зажигает любовь
Этот свет золотой, что так светит

Для меня, для тебя
Ярким светом горит
Этот лучик любви и надежды!

Для меня, для тебя
Ярким светом горит
Этот лучик любви и надежды!

Проигрыш=Вступление

Я смотрю в небеса,
Я смотрю на звезду,
И всем сердцем тебя понимаю

Этот лучик горит,
Ярким светом сияет,
В моё сердце любовь возвращает

Этот лучик горит,
Ярким светом сияет,
В моё сердце любовь возвращает!


Бой на гитаре (примерный вариант):


 
Последние комментарии

"хорошая песня и разбор хорош"
 

"второй аккорд в припеве АШ, не в тему"
 

"молодец"
 

"а где найти ноты к этой песне"
 

"Исполнение просто супер,нет слов,с душой тревогой в душе!!!Можно слушать и слушать???"
Статистика

Онлайн всего: 73
Гостей: 73
Пользователей: 0
Вход на сайт