Accordium Delectus Подборка аккордов Главная Отзывы Заявка на песню Аккорды Табы Новости Видео Статьи FAQ О сайте
А   Б   В   Г   Д   Е   Ё   Ж   З   И   Й   К   Л   М   Н   О   П   Р   С   Т   У   Ф   Х   Ц   Ч   Ш   Щ   Э   Ю   Я
 
A   B   C   D   E   F   G   H   I   J   K   L   M   N   O   P   Q   R   S   T   U   V   W   Y   Z                       0...9
"
Разделы сайта
                   
Настройка гитары
1-я струна E  

2-я струна H  

3-я струна G  

4-я струна D  

5-я струна A  

6-я струна E  
Главная > В > Виктор > Память о Последнем Герое

Группа Виктор: Память о Последнем Герое


Вступление (примерный вариант) - 2 раза:


  Em   Emadd9  Em+9   Emadd9    Em   Emadd9  Em+9  Emadd9    

E|----------------------------------------------------------|

H|----------------------------------------------------------|

G|---------------0-0--0-2-0--------------------0-0--0-2-0---|

D|-2-2--2-4-4--4------------4----2-2--2-4-4--4------------4-|

A|----------------------------------------------------------|

E|----------------------------------------------------------|

 

  Am     Am6    Am7    Am6      Am     Am6    Am7    Am6     

E|----------------------------------------------------------|

H|----------------------------------------------------------|

G|---------------0-0--0-2-0--------------------0-0--0-2-0---|

D|-2-2--2-4-4--4------------4----2-2--2-4-4--4------------4-|

A|----------------------------------------------------------|

E|----------------------------------------------------------|


Em       Emadd9 Em+9     Emadd9          
Уже прошли  года, c тех пор, как он
         Em       Emadd9 Em+9 Emadd9        Am  Am6 Am7 Am6
Оставил навсегда корону и свой трон
    Am          Am6   Am7   Am6            
И справедливым был героeм он,

Am     Am6     Am7     Am6        Em    
И я его не забыл, он шёл через огонь

Проигрыш:  Em Emadd9 Em+9 Emadd9 - 2 раза 

Печальные глаза и вечно сжатый рот,
Он не смотрел назад, он шёл всегда вперёд
Но на пути - река, и градом пот,
И онемела рука, не смог найти он брод

Hm                     
Кто бы мог сказать

Am                       Em       
И подумать о нелепой смерти?

Проигрыш:  Em Emadd9 Em+9 Emadd9 - 2 раза 


Hm                       
Но я могу сказать,
                        Am                                  Em    Emadd9 Em+9 Emadd9   
Что в наших сердцах cохранится надолго, поверьте...
                    Em      Emadd9 Em+9 Emadd9
Верьте!

Припев:

Am   H7             Em  
Память о Последнем Герое
 Am  H7                    Em 
Стала в сердцах гореть звездой!
Am   H7             Em  
Память о Последнем Герое,
  Am H7           Em  
С нами Последний Герой!

Проигрыш=Вступление(1 раз)

Кто-то скажет теперь - он многое успел,
Но я скажу - поверь, успел но всё не спел
И если б был он цел, и был бы жив,
Ещё бы долго пел он, сотни тем сложив

Но не успел герой допеть своё,
Судьба жестока, порой, особенно его
Так значит суждено не всё допеть,
И двадцать восемь дано, чтоб рано умереть!

И опустело окно,
Лишь ветер одиноко воет в поле...
Понимаю одно,
Что на то была недобрая воля,
Воля...

Припев:

Воля того, кто над нами...
Горе смываю слезой
И лишь о нём память рисую глазами,
Он с нами, Последний Герой!

Память о Последнем Герое
Стала в сердцах гореть звездой!
Память о Последнем Герое
Он с нами Последний Герой!

Окончание:


  Em   Emadd9  Em+9   Emadd9    Em   Emadd9  Em+9  Emadd9     Am     Am6    Am7    Am6     

E|----------------------------------------------------------------------------------------|

H|----------------------------------------------------------------------------------------|

G|---------------0-0--0-2-0--------------------0-0--0-2-0--------------------0-0--0-2-0---|

D|-2-2--2-4-4--4------------4----2-2--2-4-4--4------------4----2-2--2-4-4--4------------4-|

A|----------------------------------------------------------------------------------------|

E|----------------------------------------------------------------------------------------|

                                        Он с нами, Последний Герой!                         

 

  Am     Am6    Am7    Am6      Em   Emadd9  Em+9  Emadd9                    

E|--------------------------------------------------------------------------|

H|--------------------------------------------------------------------------|

G|---------------0-0--0-2-0--------------------0-0--0-2-0-------------------|

D|-2-2--2-4-4--4------------4----2-2--2-4-4--4------------4-----------------|

A|--------------------------------------------------------------------------|

E|--------------------------------------------------------------------------|

                                                              Последний герой…                                                                                  

 

 

  Em   Emadd9  Em+9   Emadd9    Am     Am6    Am7    Am6                     

E|--------------------------------------------------------------------------|

H|--------------------------------------------------------------------------|

G|---------------0-0--0-2-0--------------------0-0--0-2-0-------------------|

D|-2-2--2-4-4--4------------4----2-2--2-4-4--4------------4-----------------|

A|--------------------------------------------------------------------------|

E|--------------------------------------------------------------------------|

Последний Герой…                    

 

  Am     Am6    Am7    Am6      Em                                           

E|-------------------------------0------------------------------------------|

H|-------------------------------0------------------------------------------|

G|---------------0-0--0-2-0------0------------------------------------------|

D|-2-2--2-4-4--4------------4----2------------------------------------------|

A|-------------------------------2------------------------------------------|

E|-------------------------------0------------------------------------------|

              Он с нами, Последний Герой, Герой, Герой, Герой…                        

Примерный вариант боя:



 
Ещё песни:
 

 
 
Новые добавления
Статистика

Онлайн всего: 81
Гостей: 81
Пользователей: 0

Яндекс.Метрика

Вход на сайт