Accordium Delectus Подборка аккордов
 
Главная > А > Адреналин > Ковыляй потихонечку

Адреналин: Ковыляй потихонечку



Вступление:

Dm                   Gm      A7             Dm             
E|--------------------------------------------|
H|--------------------------------------------|
G|-2--2---------2-0--3----0--0---------0----2-|
D|------3-3-0-0----------------2-2-------3----|
A|---------------------------------4-4--------|
E|--------------------------------------------|
B                   Gm      A7             Dm            
E|--------------------------------------------|
H|--------------------------------------------|
G|----------------------------0-3-2-----------|
D|-3--3-------------------2-3-----------------|
A|------5-5--------------------------4-5------|
E|----------6-6-5-3--3------------------------|

                             Gm          A7                Dm
Ранним, солнечным утречком провожала она
                      Gm        C                      F   D
Своего ненаглядного, своего паренька:
                         Gm                                    Dm
"Ты служи, ненаглядный мой, обо мне не тужи,
                                  Gm            A7                    Dm   C>Dm
Если что-то случится вдруг, обо всём напиши"
 
Не проходит и годика, парень весточку шлёт:
"Перебило мне ноженьки, обожгло всё лицо...
Коли любишь по-прежнему, и горит огонёк,
Приезжай, забери меня" - пишет ей паренёк
"Коли любишь по-прежнему, и горит огонёк,
                                  Gm        A7                     Dm   D>Em
Приезжай, забери меня" - пишет ей паренёк

Переход на 1 тон выше (Em)

                   Am        H7                          Em 
Но ответила девушка, что любви больше нет,
                              Am      D                           G    E
Что любовь уж потеряна - вот такой был ответ
                      Am                            Em    
"Ковыляй потихонечку, а меня ты забудь,
                     Am          H7                          Em  
Зарастут твои ноженьки, проживёшь как-нибудь
         E          Am                            Em    
Ковыляй потихонечку, а меня ты забудь,
                     Am          H7                          Em    
Зарастут твои ноженьки, проживёшь как-нибудь"

Ранним, солнечным утречком возвращался домой
Скорым "дембельским” поездом паренёк молодой
С голубыми погонами, с сигаретой в зубах
Шёл походкою бодрою, на обеих ногах
С голубыми погонами, с сигаретой в зубах
                                   Am       H7               Em   E>F#m
Шёл походкою бодрою, на обеих ногах

Переход на 1 тон выше (F#m)

                      Hm        C#7                        F#m 
И с улыбкой и радостью    парня встретила мать,
                            Hm        E                  A      F#
Прибежала та девушка и хотела обнять
                         Hm                                         F#m   
"Расскажи, ненаглядный мой, сколько бед повидал" -
                       Hm      C#7                      F#m 
А солдат оттолкнул её       и тихонько сказал:

          F#       Hm                            F#m    
"Ковыляй потихонечку, а меня ты забудь -
                   Hm         C#7                    F#m 
Заросли мои ноженьки, проживу как-нибудь

Ковыляй потихонечку, а меня ты забудь -
Заросли мои ноженьки, проживу как-нибудь,

Hm           C#7        F#m           
Проживу как нибудь!"

Окончание:

F#m                  Hm      C#7            F#m            
E|--------------------------------------------|
H|--------------------------------------------|
G|-6--6---------6----7----4--4---------4----6-|
D|------7-7-------9------------6-6-3-3---7----|
A|----------9-9-------------------------------|
E|--------------------------------------------|
D                   Hm     C#7             F#m           
E|--------------------------------------------|
H|--------------------------------------------|
G|------------------------------7-6-----------|
D|-7--7-4-4---------------6-7-9---------------|
A|----------5-5-4--------------------8-9------|
E|----------------7--7------------------------|

Бой на гитаре (примерный вариант):

 


 
Последние комментарии

"Супер"
 

"хороший разбор. респект"
 

"СУПЕР!!!"
 

"очень нравится эта песня..."
 

"Я не поняла??? Это Шпаликов??? Это стихи Бориса Рыжего!"
Статистика

Онлайн всего: 56
Гостей: 55
Пользователей: 1
chesscroc
Вход на сайт