Accordium Delectus Подборка аккордов
 

Адыл Ибрагимов: Никогда



В оригинале на пол-тона ниже (D#m)


Вступление (примерный вариант):

E|-3-----7-5-3-2-0-2-----3-2-0-----3-----5-3-2-0-----------0--2-|

H|---3---------------3---------3-----0-----------0-----2-3------|

G|-----4---------------2---------2-----0-------------0----------|

D|-5---------------0---------------2----------------------------|

A|-------------------------------------------------3------------|

E|--------------------------------------------------------------|


          G            D 
Никогда, никогда 
        Em          C
Не забуду я тебя
       G               D 
Твоё имя на стене 
           Em              C 
Мне напомнит о тебе

Припев:

    G                     D        Em 
О том, как тихо плакала ты, 
             C            G 
Как одиноко в ночи,
                 D                Em   
Как ты сказала среди дней: 
                     C         G     
"Исчезни из жизни моей!"

                 D       Em 
Как тихо плакала ты, 
             C            G 
Как одиноко в ночи,
                 D                Em  
Как ты сказала среди дней:
                     C         G     
"Исчезни из жизни моей!"

Проигрыш=Вступление

Всё пройдёт, всё пройдёт, 
Боль-обида - всё уйдёт
Только знай: моё имя 
В твоём сердце вновь споёт

Припев.

Окончание:

E|-3-----7-5-3-2-0-2-----3-2-0-----3-----5-3-2-0-----------0--2-|          |-3-|

H|---3---------------3---------3-----0-----------0-----2-3------|          |---|

G|-----4---------------2---------2-----0-------------0----------|          |---|

D|-5---------------0---------------2----------------------------|          |-5-|

A|-------------------------------------------------3------------|          |---|

E|--------------------------------------------------------------| - 2 раза |---|

 
Последние комментарии

"Во!"
 

"Посмотрела этот мульт с ребёнком, так понравилась песня - начала её искать специально ☺... Жаль что сейчас такие не пишут"
 

""Ласковый май" вернулся"
 

"Безумно красивая композиция"
 

"Текст не соответствует заявленному! Примите меры."
Вход на сайт