Accordium Delectus Подборка аккордов
 
Главная > Дуэты > Барыкины Александр и Нелли: Десять дней

Александр и Нелли Барыкины: Десять дней


Вступление(примерный вариант):

E|------0------0---------------1-------0-----0------------------|

H|------1------1---------------0-------0-----0------------------|

G|----2--------0-------------0---0-----0-----0------------------|

D|----------------0-2-------------------------------------------|

A|-0-------2-3--------3-----------------------------------------|

E|------------------------3---------0-----3---------------------|

 

E|------0------0---------------1--------------------------------|

H|------1------1---------------0--------------------------------|

G|----2--------0-------------0---0------------------------------|

D|----------------0-2-------------------------------------------|

A|-0-------2-3--------3-------------------2-0-------------------|

E|------------------------3---------0--3------3-----------------|

 

E|------0------0---------------1--------------------------------|

H|------1------1---------------0--------------------------------|

G|----2--------0-------------0---0------------------------------|

D|----------------0-2-------------------------------------------|

A|-0-------2-3--------3-------------------2-0-------------------|

E|------------------------3---------0--3------3-----------------|

 

E|------0-----------0-----------0---0---0-----------0---0---0---|

H|------1-----------3-----------1---0---0-1---------1---0---0-1-|

G|----2---2-------4---4-------2---2---2-----------2---2---2-----|

D|--------------------------------------------------------------|

A|-------------------------0-------------------0----------------|

E|-1-----------3------------------------------------------------|

 Am                 Am/G            F        G  
Десять дней над городом висит гроза,
   Am              Am/G                F     G   
В серой дымке прежний город не узнать
 C             C/H                 Am 
За окном погас небесный свет,
    Am/G               F    Em            Am  G
Твой стирает след дым от сигарет
  C             C/H                 Am  
За окном погас небесный свет,
Am/G               F    Em            Am
Твой стирает след дым от сигарет

Проигрыш(примерный вариант):

E|------0------0---------------1----------------|

H|------1------1---------------0----------------|

G|----2--------0-------------0---0--------------|

D|----------------0-2---------------------------|

A|-0-------2-3--------3-------------------2-0---|

E|------------------------3---------0--3------3-|



Десять дней звучат мелодии дождей,
Лишь коснусь струны и думаю о ней
Тени одиночества кругом,
Только с неба гром в мой приходит дом
Тени одиночества кругом,
Только с неба гром в мой приходит дом

Проигрыш(примерный вариант):

E|------0-----0---0--------1------1----1---------0------0---0--------1------|

H|------1-----0---0--------0------0----0-----0-1--------0---0--------0------|

G|----2-------2---2------0---0----0----0----------------2---2------0---0----|

D|--------2-3---2---------------0-------------------2-3---2-----------------|

A|-0-----------------3-2-------------2-----0-------------------3-2----------|

E|---------------------------------------3----------------------------------|

 

E|-3-1---0---------0---0--------1------1----1---------0------0---0-------1--|

H|-----3---1-------0---0--------0------0----0-----0-1--------0---0-------0--|

G|-----------0-----2---2------0---0----0----0----------------2---2-----0---0|

D|-------------2-3---2---------------0-------------------2-3---2------------|

A|-2-0---3----------------3-2-------------2-----0------------------3-2------|

E|-----3--------------------------------------3-----------------------------|


E|-3-1---1---1--3---3-|

H|-----3-1--1---3--3--|

G|-------2-2----4-4---|

D|-------3------5-----|

A|-2-0---3------5-----|

E|-----3-1------3-----|


Десять дней я жду, когда придёт она,
Жду, когда вернётся прежняя весна
Свет в мой дом прольётся только с ней,
И уйдут, как сон, эти десять дней
Свет в мой дом прольётся только с ней,
И уйдут, как сон, эти десять дней...
 


 
Последние комментарии

"Супер !!!!!"
 

"Класс"
 

"КЛАСС!!!!!!!!!!!!!!!!!"
 

"Молодца!"
 

"В припеве аккорды под большим вопросом. Жалко, что композитор умер и нотную партитуру не оставил."
Статистика

Онлайн всего: 126
Гостей: 126
Пользователей: 0
Вход на сайт