Accordium Delectus Подборка аккордов
 
Главная > Н > Новиков Александр > Это не лето

Александр Новиков: Это не лето



Вступление:

E|-----0--0--0-|

H|-----3--1--0-|

G|-------------|

D|-1>2---------|

A|-------------|

E|-------------|

|Am  Am|


 Am                                                  Dm
Время своё потихоньку берёт ловкой рукой,
   F7                   Dm               
Птицам назавтра опять перелёт,
 G                                E7 
Небо чиркнув серой строкой 
 
Взмоют, покружат, и вдруг на душе - как отлегло,
Значит мой срок на исходе уже, 
И в честь него с неба тепло

Припев:
 
                Am  
Но это - не лето,
          Am                               Dm
Это тепло, что вчера не убила зима
      Dm                      G                           C    E7
Вместо огня по глотку пусть достанется всем
 
Это - не лето,
И потому лист кружит и кружит без ума,
F7                                            E7        Am  
И не спешит с небом расстаться уже насовсем

 
Письма-заморыши издалека - клочья тепла,
Их на костёр не отправит рука,
Всё в них и так — в угли дотла
 
Их перечесть и вернуться назад мне не суметь, 
В каждой из них вместо точки - слеза,
Колет и жжёт, и пытается греть
 
Припев.

Проигрыш:

         Am                                  Dm                F7                    Dm             G                          E7                    

E|--------------------------------------------------------------------------------------------|

H|------------------------------------------------------------------------------------------3-|

G|----------------------------------------------------------------------------------------1---|

D|-----------------------0-2------------------------------------------------------------2-----|

A|-2>3-2-0-3--3-2-0-3--3-----2---------2>3-2-0-3--2-3-3>5-3-2-5---2-2-2-2---2-3-5-5>7---------|

E|--------------------------------------------------------------------------------------------|


   Am                                            Dm    Dm7 Dm6      F7                  Dm             G                        E7    

E|--------------------------------------------------------------------------------------------|

H|-----------------------------5-5>6----------------------------------------------------------|

G|---5-4---5---4>5-4---5---5-7---------------------5-4---5--4-5-7-5-4-7---4-4-4-4---4-5-7-7>9-|

D|-7-----7-----------7---------------------------------7--------------------------------------|

A|--------------------------------------------------------------------------------------------|

E|--------------------------------------------------------------------------------------------|


Припев.

Окончание: Am  Am  F7  E7 - 2 раза Am

Бой на гитаре (примерный вариант):

 


 
Последние комментарии

"До слёз...буквально, в прямом смысле..."
 

"Спасибо"
 

"2 курс.Медляк"
 

"Отлично! Благодарю."
 

"Vielen Dank!"
Статистика

Онлайн всего: 121
Гостей: 121
Пользователей: 0
Вход на сайт