Accordium Delectus Подборка аккордов
 
Главная > Б > Бобков Вячеслав > Колесо и белка

Слава Бобков: Колесо и белка



Вступление:

           Hm              Em             Em/C# F#         Hm    F# 

E|-----------------------------------------------------------------|

H|-7--5------------7--5------------7--5------------7--5------------|

G|------7-6-7-4---------7-6-7-4---------7-6-7>9---------7-6-7-4----|

D|-----------------------------------------------------------------|

A|-----------------------------------------------------------------|

         E|-----------------------------------------------------------------| - 2 раза


             Hm     
   Колесо и белка... 
                       Em      
Жизнь кумиров свергла,
                  Em/C#  F#
Бунтари устали,
                 Hm  
Верить перестали

Hm-Hm7/A-G                 H7              Em                    
Повышая значимость свою,
Em/C#                    F#          Hm  F#      
Соловьи без денег не поют


Дело не в оплате -
Кайф уже не катит,
Нет движения в мыслях, 
Как и смысла в жизни

И, привыкшие, молчат сердца...
Em/C#                          F#               Hm
Где, в конце-концов, конец конца?

Припев:

Hm-Hm7/F-G                    H7              Em                    
   В синем небе тает птичья стая...
 A                            D    D7
Это воля, воля улетает,
G                  H7           Em    
Пропадают годы-миражи,
Em/C#                   F#        Hm     F#     
Без огня пустая тает жизнь


Глупо верить в моду,
Лживую свободу,
Видеть только деньги,
Хит-парад и рейтинг

И торчать в "формате", как овца...
Где, в конце-концов, конец конца?

Припев.

Проигрыш:

           Hm              Em             Em/C# F#         Hm    F# 

E|-----------------------------------------------------------------|

H|-7--5------------7--5------------7--5------------7--5------------|

G|------7-6-7-4---------7-6-7-4---------7-6-7>9---------7-6-7-4----|

D|-----------------------------------------------------------------|

A|-----------------------------------------------------------------|

E|-----------------------------------------------------------------|

            Hm              Em             Em/C# F#         Hm    Hm    Hm7/A    G   

E|--------------------------------------------------------------------------------|

H|-7--5------------7--5------------7--5------------7--5---------------------------|

G|------7-6-7-4---------7-6-7-4---------7-6-7>9---------7-6-7-4-------------------|

D|--------------------------------------------------------------------------------|

A|----------------------------------------------------------------2-2--2-0-0--0---|

E|------------------------------------------------------------------------------3-|

           H7        Em     A                    D   D7 G H7 Em  Em/C# F# Hm 

E|-7--7-7-7-7--5-5--5-5--3----5-5--5-5-9--7-5--3-3-2----7--5--3----12--9--10|

H|-8--8-8-8-8--7-7--7-7--5----7-7--7-7-10-8-7--5-5-3----8--7--5-------------|

G|-----------------------------------------------------------------12--9--11|

D|--------------------------------------------------------------------------|

A|--------------------------------------------------------------------------|

E|--------------------------------------------------------------------------|


Припев.

     Hm                                     
Ох, белка! Белка! Колесо и белка!

Бой на гитаре (примерный вариант):

 


 
Последние комментарии

"а каким боем играть?"
 

"настоящие !"
 

"А мне мой будущий муж пел под гитару и прожили вместе 41 год"
 

"Замечательно! Так трогательно и жизнено."
 

"Помню эту вещь Барыкина мы тогда ее просто слушали даже не подбирали"
Статистика

Онлайн всего: 130
Гостей: 129
Пользователей: 1
grign1kolai
Вход на сайт