Accordium Delectus Подборка аккордов
 
Главная > А > Аквариум > Та, которую я люблю

Аквариум: Та, которую я люблю




  Am                 E                                  Am            

E|-------0-----------------0--------------0--------------------0-----|

H|-----1---1-------------0---0----------0---0----------------1---1---|

G|---2-------2---------1-------1------1-------1------------2-------2-|

D|-------------------------------------------------------------------|

A|-0--------------------------------2--------------------0-----------|

E|-------------------0-----------------------------------------------|

 Снился мне путь на Север,        Снилась мне гладь, да тишь          

 

   Am                 E              G              C                  

E|--------0-----------------0--------------3--------------0----------|

H|------1---1-------------0---0----------0---0----------1---1--------|

G|----2-------2---------1-------1------0-------0------0-------0------|

D|-------------------------------------------------------------------|

A|--0-----------------------------------------------3----------------|

E|--------------------0--------------3-------------------------------|

И словно б открылось небо,       И словно бы ты глядишь              

 

 

  A7             Dm                 F               E                 

E|-------0--------------1-----------------1---------------0----------|

H|-----2---2----------3---3-------------1---1-----------0---0--------|

G|---0-------0------2-------2---------2-------2-------1-------1------|

D|----------------0-----------------3---------------2----------------|

A|-0-----------------------------------------------------------------|

E|-------------------------------------------------------------------|

   Ангелы все в сияньи,        И с ними в одном строю,                

 

  Dm              Am              E               Am                  

E|-------1---------------0--------------0----------------0-----------|

H|-----3---3-----------1---1----------0---0------------1---1---------|

G|---2-------2-------2-------2------1-------1--------2-------0-------|

D|-0-----------------------------------------------------------------|

A|-----------------0-------------------------------0-----------------|

E|--------------------------------0----------------------------------|

        Рядом с тобой одна   -   Та, которую я       люблю                       



И я говорю: "Послушай,
Что б ты хотел, ответь -
Тело моё и душу,
Жизнь мою и смерть?

Всё, что ещё не спето,
Место в твоём раю -
Только отдай мне ту,
Которую я люблю


В сердце немного света,
Лампочка в тридцать ватт
Перегорит и эта,
За новой спускаться в ад

А я всё пляшу, не глядя,
На ледяном краю,
И держит меня одна,
Та, которую я люблю


     A7                    Dm  
И что впереди - не знаю,
       F                   E   
Но знаю судьбу свою -
Dm                 Am
Вот она ждёт одна,
          E               Am
Та, которую я люблю

Проигрыш=Куплет.

 


 
Последние комментарии

"Супер"
 

"хороший разбор. респект"
 

"СУПЕР!!!"
 

"очень нравится эта песня..."
 

"Я не поняла??? Это Шпаликов??? Это стихи Бориса Рыжего!"
Статистика

Онлайн всего: 40
Гостей: 39
Пользователей: 1
fedordim
Вход на сайт