Accordium Delectus Подборка аккордов Главная Отзывы Заявка на песню Аккорды Табы Новости Видео Статьи FAQ О сайте
А   Б   В   Г   Д   Е   Ё   Ж   З   И   Й   К   Л   М   Н   О   П   Р   С   Т   У   Ф   Х   Ц   Ч   Ш   Щ   Э   Ю   Я
 
A   B   C   D   E   F   G   H   I   J   K   L   M   N   O   P   Q   R   S   T   U   V   W   Y   Z                       0...9
"
Разделы сайта
                   
Настройка гитары
1-я струна E  

2-я струна H  

3-я струна G  

4-я струна D  

5-я струна A  

6-я струна E  

Александр Барыкин: Два цветка


Вступление:

E|-------3--2--5----------2--0--3----2~3~2--0---|

H|-----3----------------1---------------------3-|

G|---0----------------2-------------------------|

D|-2----------------0---------------------------|

A|----------------------------------------------|

E|----------------------------------------------|


E|-------3--2--5----------2--0--3------------------------3-0-----|

H|-----3----------------1------------------------------0-----0---|

G|---0----------------2------------------------------0-----------|

D|-2----------------0----------------4~5~4-2-0-----2-----------2-|

A|-----------------------------------------------2---------------|

E|---------------------------------------------0-----------------|


                              Am  H7-9
В старой вазе моей 
                            Em7
Два весенних цветка:
                                 Am  H7-9
Белый-белый жасмин,
                                      Em7   E7
Жёлтый-жёлтый тюльпан

                             Am   D7
И головки склоня,
                               G   C
На прозрачный хрусталь,
                        Am(2)
Про тебя и меня
Hm                 Em   
Тихо-тихо шептали


Про любовь и печаль
Мне шептали они,
И тебя не прощать 
Наказали они 

Белый быстро оцвёл,
Ну а жёлтый остался... 
Кто-то друга обрёл,
Кто-то с другом расстался

Припев:

            Am H7-9            Em7
Белый цвет   -   цвет любви,
                   Am D7           G      E7
Жёлтый цвет - цвет измены
          Am H7-9             Em7
Ночи слёз        так длинны,
          C  H7         Am(2)    
Ночи ласк так мгновенны,
Hm              Em           
Так мгновенны

Проигрыш:

Am  H7-9  Em7  Em7  Am  D7-C6-D7/F#-G(2)

E7(2) Am7  D7-C6-D7/F#-G(2)  G(2)  Am  Hm(2)  Em  Em

Припев.

Проигрыш:

Am  H7-9  Em7  Em7  Am  D7  G  E7

           Am H7-9            Em7
Ночи слёз      так длинны,
             C  H7          Am(2)       
Ночи ласк так мгновенны, 
Hm              Em       
   М-м-м, мгновенны...

Проигрыш:

Am  H7-9  Em7  Em7  Am  D7  G  E7

           Am H7-9            Em7
Ночи слёз      так длинны,
          C  D            Em      
Ночи ласк так мгновенны,
C  D               Em       
          Так мгновенны...

Окончание:

C  D  Em9  Em9  
 
 
Новые добавления
Статистика

Онлайн всего: 90
Гостей: 90
Пользователей: 0

Яндекс.Метрика

Вход на сайт