Accordium Delectus Подборка аккордов
 
Главная > Б > Буйнов Александр > Красавица жена

Александр Буйнов: Красавица жена



Вступление - 4 раза:

E|--------------------------------------|

H|----------1-0-------------------------|

G|-0~1---2------2---0-2-----2---------2-|

D|-0~1---2----------0-2-----0-----5~4-2-|

A|-----0----------0-----2~3-----------0-|

E|----------------------------3-2-------|


E|--------------------------------------|

H|----------1-0-------------------------|

G|-0~1---2---~--2----0-2-----2----------|

D|-0~1---2---~-------0-2-----0----------|

A|-----0-----------0-----2~3------------|

E|--------------------------------------|


 Am                                           
Уже который год со мною не живёт,
      Am                                                         Dm
Со мною не живёт, а только мается красавица жена,
                  Am
Красавица жена

   Am                            G             Am   
Гостиничный комфорт, дорог круговорот...
Am                                                        
Так хочется расслабиться и с веничком попариться,
     Am                                                                     Dm
Но всё не получается, ведь ждёт меня, ведь ждёт меня она,
F        G           Am     
Красавица жена!

Припев:

                  G                      Am      
Ты меня не трожь этой ночкой тёмной,
                G                     Am   
Я тебя люблю, только дай уснуть!
                         G                          Am       
Словно в сердце нож, даже вспомнить больно,
                   G E                   Am   
Лучше уж никак вместо как-нибудь

Проигрыш - 2 раза:

E|--------------------------------------|

H|----------1-0-------------------------|

G|-0~1---2------2---0-2-----2---------2-|

D|-0~1---2----------0-2-----0-----5~4-2-|

A|-----0----------0-----2~3-----------0-|

E|----------------------------3-2-------|


E|--------------------------------------|

H|----------1-0-------------------------|

G|-0~1---2---~--2----0-2-----2----------|

D|-0~1---2---~-------0-2-----0----------|

A|-----0-----------0-----2~3------------|

E|--------------------------------------|


Не знаю как и быть, так невозможно жить!
Работа пусть подавится, встречай меня, красавица жена,
Красавица жена!

Как спелый апельсин, я свеж и полон сил,
То голубем, то соколом, кручусь вокруг да около...
Подруга темноокая, ну обними, ну обними меня,
Но что же слышу я:

Припев.

Проигрыш: Am  Am  Am  Am  Dm  Dm  Am  Am

Припев:

Ты меня не (фьюить) этой ночкой тёмной,
Я тебя (фьюить-фьюить), только дай уснуть!
Словно в сердце нож, даже вспомнить больно,
Лучше уж никак вместо как-нибудь

G            
Ты меня не трожь (ты его не трогай!)
Am              
Этой ночкой тёмной (тёмной, тёмной),
G     
Я тебя люблю (он тебя того),
Am              
Только дай уснуть (ну дай ему поспать!)

Словно в сердце нож (ну чё ты, чё ты, чё ты!),
Даже вспомнить больно (но, но),
                   G          E  
Лучше уж никак (да, да)
                 Am
Вместо как-нибудь

Ты меня не трожь этой ночкой тёмной,
Я тебя люблю, только дай уснуть!
Словно в сердце нож, даже вспомнить больно,
Лучше уж никак вместо как-нибудь

Окончание:

E|--------------------------------------|

H|----------1-0-------------------------|

G|-0~1---2------2---0-2-----2---------2-|

D|-0~1---2----------0-2-----0-----5~4-2-|

A|-----0----------0-----2~3-----------0-|

E|----------------------------3-2-------|


E|--------------------------------------------------------------------------|

H|----------1-0-------------------------------------------------------------|

G|-0~1---2------2---0-2-----2--5-4-2--4~5-2-----2--4~5-2-----2--4~5-2-----2-|

D|-0~1---2----------0-2-----0--5-4-2------2-----2------2-----2------2-----2-|

A|-----0----------0-----2~3--------0------0-3~4-0------0-3~4-0------0-3~4-0-|

E|--------------------------------------------------------------------------|

Бой на гитаре (примерный вариант):

 


 
Последние комментарии

"Великолепная песня и исполнение!!!"
 

"всем привет. у кого есть минусовка?"
 

"Классно !!!"
 

"Если смотреть, например, в тональности Am, то как будто во второй строчке между Em и Am пропущен F"
 

"Я в восторге! Супер! Скачала себе, будем с сестрой петь.💘"
Статистика

Онлайн всего: 22
Гостей: 21
Пользователей: 1
Justas
Вход на сайт