Accordium Delectus Подборка аккордов
 
Главная > Д > Добронравов Александр > Одинокая волчица

Александр Добронравов: Одинокая волчица


Вступление (примерный вариант перебора):


  Am                              Dm                             

E|--------0---------------0---------------1---------------1-----|

H|------1---1-----------1---1-----------3---3-----------3---3---|

G|----2-------2-------2-------2-------2-------2-------2-------2-|

D|---------------------------------0---------------0------------|

A|-0---------------0--------------------------------------------|

E|--------------------------------------------------------------|

 

   G               F             Esus4             E              

E|--------3---------------1---------------0---------------0-----|

H|------0---0-----------1---1-----------0---0-----------0---0---|

G|----0-------0-------2-------2-------2-------2-------1-------1-|

D|--------------------------------------------------------------|

A|--------------------------------------------------------------|

E|-3---------------1---------------0---------------0------------|

 

  Am             Am/G            Dm/F            Dm/H            

E|--------0---------------0---------------1---------------1-----|

H|------1---1-----------1---1-----------3---3-----------3---2---|

G|----2-------2-------2-------2-------2-------2-------2-------2-|

D|---------------------------------3----------------------------|

A|-0-----------------------------------------------2------------|

E|-----------------3--------------------------------------------|

 

  Am               E              Am              Am             

E|--------0---------------0---------------0--------0------------|

H|------1---1-----------0---0-----------1---1------1------------|

G|----2-------2-------1-------1-------2-------2----2------------|

D|-------------------------------------------------2------------|

A|-0-------------------------------0---------------0------------|

E|-----------------0--------------------------------------------|

Am                                                   Dm     
Её не всегда среди женщин земных угадаешь,
      G                                              C    E
Но если увидел, то глаз уже не оторвать
               Am                                                 Dm       Dm/H  
И дрогнет душа, потому что ты даже не знаешь,
   Am                         E                 Am  
Чего и когда можешь ты от неё ожидать

     A7/C#                                          Dm      
В зелёных глазах утопают ближайшие звёзды,
       H7/D#                                        Esus4  E  
И лучше, поверь, на пути у неё не стоять
             Am                                                 Dm      Dm/H     
А если внезапно уйдёт, значит это серьёзно -
      Am                     E                       Am    
Подарит улыбку и станет загадочно ждать

Припев:

  Am                       Dm   
Просто одинокая волчица
        G              F            Esus4  E   
Не любого может полюбить
          Am             Am/G       Dm/F    Dm/H 
Словно неприступная царица -
        Am              E               Am  
Ни купить нельзя её, ни приручить


Когда её лёд перед серцем горячим растает,
Забудет она своего одиночества боль,
Забудет знакомую роль, что так долго играет,
Как будто воскреснет и снова поверит в любовь

В зелёных глазах утопают ближайшие звезды,
И лучше, поверь, на пути у неё не стоять
А если внезапно уйдёт, значит это серьёзно,
Подарит улыбку и станет загадочно ждать
А если внезапно уйдёт, значит это серьёзно,
Подарит улыбку и станет загадочно ждать

Припев.

        G                               C        F-C
Кто хотел взаимности добиться,
                  A7                                Dm  Dsus4-Dm        
Перебрали тысячу причин
           F           G            C       Dm 
Просто одинокая волчица,
Am             E                Am   
Ищет своего среди мужчин
            F           G            C       Dm 
Просто одинокая волчица
   Am             E                Am   F 
Ищет своего среди мужчин

Переход на 1 полутон (на 1 лад) выше (Bm)

Припев:

  Bm                       D#m 
Просто одинокая волчица
        G#            F#           Fsus4   F   
Не любого может полюбить
             Bm            Bm/G#     D#m/F#   D#m/C
Словно неприступная царица -
        Bm               F               Bm   
Ни купить нельзя её, ни приручить,
   Ни купить нельзя её, ни приручить...

Dm/H                                     A7/C#

    

H7/D#                                    Esus4

    

Am/G                                   Dm/F

    

Dsus4                                    Fsus4

    

Bm/G#                                      D#m/F#

    

D#m/C


Примерный вариант боя: 

 


 
Последние комментарии

"Здорово конечно! Спасибо! А можно в Am перевести?"
 

"Благодарю за правильные аккорды! Низкий поклон автору песни."
 

"Красивая, но забытая песня."
 

"хороший подбор"
 

"Молодец! Не надо забывать чувство любви, оно движет Миром!!!!"
Статистика

Онлайн всего: 62
Гостей: 62
Пользователей: 0
Вход на сайт