Accordium Delectus Подборка аккордов
 
Главная > Д > Дольский Александр > Государство Синих Глаз

Александр Дольский: Государство Синих Глаз



Вступление:

    Em          Am          D7           G            
E|-7-5---------------0-----5-3-2-0-----------------|
H|-----8-7-5-0-1---------1---------3-1-0-----3-----|
G|-----------------2---2-------------------0-----0-|
D|---------------2---------0-------------0-----0---|
A|-------------0-----------------------------------|
E|-0-----------------------------------3-----------|
    Em            C7          H7        Em            
E|-3-2-0-------------3-----------2---------------0-|
H|-------3-1-0-----------------------4---------0---|
G|-------------3-----------2-------2---------0-----|
D|-----------------5-----5-----4-----------2-------|
A|---------------3-----3-----2-----------2---------|
E|-0-----------------------------------0-----------|

           Em              Am              H7              Em   
Летний вечер от пригорка малахитом стелет тень,
       Em/G              Am                 D7               G   
Земляникой сладко-горькой на губах растаял день
        E7                Am            D7                  G 
Я живу - в росе колени, удивляясь каждый час
      Am             Em                 F#          H7      Em 
Чудесам и откровениям в Государстве Синих Глаз

            D7               G                    D7               G     
В этом царстве-государстве, где погодится без бурь,
              H7        Em                   H7            C    
Мне прощается гусарство и мальчишеская дурь,
             Am     Emadd9                F#     H7 Em   
Мне прощается гусарство и мальчишеская дурь

Проигрыш=Вступление

Пусть я подданный, но всё же я весьма беспечный класс -
Притворяюсь я вельможей в Государстве Синих Глаз
Только, что тут притворяться - я как на ладони весь,
Пропадай мое дворянство - спесь меняется на лесть

Подольститься просто очень, это делал я не раз -
Сверхдоверчивые очи в Государстве Синих Глаз,
Сверхдоверчивые очи в Государстве Синих Глаз

Проигрыш=Вступление

А устроен я так странно - всё скучаю по ветрам,
Неизведанные страны снятся, снятся по утрам
А когда за сотни далей я шагаю, как сейчас,
Мои мысли улетают в Государство Синих Глаз

Я живу - в росе колени, удивляясь каждый час
Чудесам и откровениям в Государстве Синих Глаз,
Чудесам и откровениям в Государстве Синих Глаз

Окончание:

    Em          Am          D7           G               
E|-7-5---------------0-----5-3-2-0--------------------|
H|-----8-7-5-0-1---------1---------3-1-0-----3--------|
G|-----------------2---2-------------------0-----0----|
D|---------------2---------0-------------0-----0------|
A|-------------0--------------------------------------|
E|-0-----------------------------------3--------------|
    Em            C7          H7        Em               
E|-3-2-0-------------3-----------2---------------0--0-|
H|-------3-1-0-----------------------4---------0----0-|
G|-------------3-----------2-------2---------0------0-|
D|-----------------5-----5-----4-----------2--------2-|
A|---------------3-----3-----2-----------2----------2-|
E|-0-----------------------------------0------------0-|
 


 
Последние комментарии

"Спасибо! отличная песня."
 

"Интересно кто так бездарно подбирает?! В оригинале слабо что ли?"
 

"Простая и в тоже время прекрасная,душевная песня.Спасибо!"
 

"Дзякуй"
 

"Показать окорды"
Статистика

Онлайн всего: 69
Гостей: 69
Пользователей: 0
Вход на сайт