Accordium Delectus Подборка аккордов
 
Главная > Д > Дольский Александр > Любовь, что земля

Александр Дольский: Любовь, что земля



В оригинале на пол-тона ниже (D#m)

Вступление:

 Em/F#   Em     Em7    Em      

E|----------------------------|

H|-----0------0------0------0-|

G|---0------0------0------0---|

D|-4------2------0------2-----|

A|----------------------------|

         E|----------------------------| - 2 раза

  Em7   Em/C#  Em/H   Em/C#    

E|----------------------------|

H|-----0------0------0------0-|

G|---0------0------0------0---|

D|-0--------------------------|

A|--------4------2------4-----|

         E|----------------------------| - 2 раза


     Em7            Em/C# Em/H        Em/C#
Любовь, что земля,   а люди - что лес,
    Em7   Em/C#  Em/H   Em/C#
Клёнами и сосняка-а-а-ми,
Am                                          
Недоумённый, стою, как крест,
      Am              Am6  
С берёзовыми руками

              Em                   H7  
И вечно один, и тот же звук,
              H7                 Em   
Листья мои шелестят устало
                     E7                      Am  
Почему так много деревьев вокруг?
                     D7                G     
Почему, почему земли так мало?

 E7             Am  D7               G        
Вы о чём, леса, землю всё просите?
Am           Em    H7          Em/F#   
Ваши чудеса - кроны, не просеки

Проигрыш:

 Em/F#   Em     Em7    Em      

E|----------------------------|

H|-----0------0------0------0-|

G|---0------0------0------0---|

D|-4------2------0------2-----|

A|----------------------------|

         E|----------------------------| - 2 раза


Почему засыхает побег один,
Другой свою крону купает в тучах,
Гибнут на чёрной земле равнин
И живут на базальте холодной кручи?

Почему ты, земля, не ко всем ровна?
К одним ты суха, к другим ты влажна
Налей ты и мне своего вина,
Дай утолить мне сегодня жажду

Сохнут тополя, жажда замучала,
Напои земля чадо горючее...

Проигрыш:

 Em/F#   Em     Em7    Em      

E|----------------------------|

H|-----0------0------0------0-|

G|---0------0------0------0---|

D|-4------2------0------2-----|

A|----------------------------|

         E|----------------------------| - 2 раза


Любовь, что земля, а люди - что лес,
Клёнами и сосняками,
Недоумённый, стою, как крест,
С берёзовыми руками
 


 
Последние комментарии

"Душевно..!"
 

"Жаль нет минусовки ."
 

"Хорошая песня ! Правдивая"
 

"Сейчас таких песен нет."
 

"Замечательная песня"
Статистика

Онлайн всего: 69
Гостей: 69
Пользователей: 0
Вход на сайт