Accordium Delectus Подборка аккордов
 
"
Главная > К > Кальянов Александр > Возвращался домой

Александр Кальянов: Возвращался домой



Вступление (примерный вариант боя):

    Em   Em7  F#7       Dm   Dm7  E7        Am                  F#7  H7     
E|----0----0----0----0----1----1----0----0----0----0----0----0----0----2-|
H|----0----0----2----2----3----3----3----3----1----1----1----1----2----4-|
G|----0----0----3----3----2----2----1----1----2----2----2----2----3----2-|
D|-2----0---------4----0--------------2----------------------------------|
A|-----------4--------------3----2---------0---------0--------------2----|
E|----------------------------------------------0---------0----2---------|
    Em   Em7  F#7       Dm        E7        Am   Am7  F#7  H7   Em          
E|----0----0----0----0----1----1----0----0----0----0----0----2----0----0-|
H|----0----0----2----2----3----3----3----3----1----1----2----4----0----0-|
G|----0----0----3----3----2----2----1----1----2----2----3----2----0----0-|
D|-2----0---------4----0---------------------------------------2---------|
A|-----------4--------------0---------2----0--------------2---------2----|
E|-------------------------------0--------------3----2-------------------|

Em                          F#7 H7                   Em        
Возвращался домой     я осенней порой
Am          Am6 Em/G         Em         F#7             H7       
И в пути,          и в пути журавлей повстречал
C                                 D   G                             E7           
И я спросил журавлей: "Что для сердца милей?" -
  Am      Am6 Em/G            Em Am        D              G  
"Дом родной,         дом родной" - караван прокричал
C                                 D   G                             E7            
И я спросил журавлей: "Что для сердца милей?" -
 Am       Am6 Em/G            Em Am6         H7        Em
"Дом родной,         дом родной" - мне вожак отвечал

Тот, кто не был вдали от родимой земли,
Никогда, никогда не поймёт до конца
Всей её красоты и земной доброты,
Не поймёт, не поймёт даже песни скворца
Всей её красоты и земной доброты
Не поймёт, не поймёт даже песни скворца

Я прошёл сто дорог, но на сердце сберёг
Ту одну, ту одну, что домой привела
Много в свете земель, но теплей и родней
Та земля, та земля, что меня родила
Много в свете земель, но теплей и родней
Та земля, та земля, что меня родила

Возвращался домой я осенней порой
И в пути, и в пути журавлей повстречал
И я спросил журавлей: "Что для сердца милей?" -
"Дом родной, дом родной" - караван прокричал
И я спросил журавлей: "Что для сердца милей?" -
"Дом родной, дом родной" - мне вожак отвечал

Окончание:

    Em   Em7  F#7       Dm        E7        Am   Am7  F#7  H7     
E|----0----0----0----0----1----1----0----0----0----0----0----2-|
H|----0----0----2----2----3----3----3----3----1----1----2----4-|
G|----0----0----3----3----2----2----1----1----2----2----3----2-|
D|-2----0---------4----0---------------------------------------|
A|-----------4--------------0---------2----0--------------2----|
E|-------------------------------0--------------3----2---------|
  Em                             Em6add9 
E|----0----0----0----0----0----0-------2-|
H|----0----0----0----0----0----0------2--|
G|----0----0----0----0----0----0-----0---|
D|-2---------2---------2-----------------|
A|------2---------2---------2------------|
E|----------------------------------2----|
 
Поделись с друзьями:
 
 
Последние комментарии

"Тогда другим - с крутых яиц бульон"
 
Борис Блохин «БИРТМАН: Иволга

"Ну и хрень."
 

"Замечательная песня."
 

"лажа полнейшая"
 

"давно эту песню мы ждали -спасибо"
Настройка гитары
1-ая струна E (ми)  

2-ая струна H (си)  

3-я струна G (соль) 

4-ая струна D (ре) 

5-ая струна A (ля) 

6-ая струна E (ми) 
Статистика

Онлайн всего: 84
Гостей: 84
Пользователей: 0
Вход на сайт