Accordium Delectus Подборка аккордов
 
Главная > М > Малинин Александр > Кладбище Сент-Женевьев-де-Буа

Александр Малинин: Кладбище Сент-Женевьев-де-Буа



В оригинале - G#m (на полтона ниже)


Вступление:

  Am     H7      E     Am       Am     H7      E     A7       

E|---0-0----1-1----0-0----0-0------0-0----1-1----0-0----0-0-|

H|---1-1----0-0----0-0----1-1------1-1----0-0----0-0----2-2-|

G|---2-2----1-1----1-1----2-2------2-2----1-1----1-1----0-0-|

D|----------------------------------------------------------|

A|-0------2-------------0--------0------2-------------0-----|

E|---------------0-----------------------------0------------|

 

  Dm    Am/C   Hm7-5   Am       Dm      E     Am              

E|---1-1----0-0----1-1----0-0------1-1----0-0----0-0----0-0-|

H|---3-3----1-1----0-0----1-1------3-3----0-0----1-1----1-1-|

G|---2-2----2-2----2-2----2-2------2-2----1-1----2-2----2-2-|

D|-0-----------------------------0--------------------------|

A|--------3------2------0----------------------0------------|

E|--------------------------------------0-------------0-----|

  
Am                 Em           Am        
Малая церковка, свечи оплывшие, 
Am           Em7     Dm7       Am
Камень дождями изрыт добела 
   C           G     Dm            Am       
   Здесь похоронены бывшие, бывшие... 
Dm                 Am              E         Am      
Кладбище Сент-Женевьев-де-Буа

Здесь похоронены сны и молитвы, 
Слёзы и доблесть, "прощай" и "ура", 
Штабс-капитаны и гардемарины, 
Хваты-полковники и юнкера

Белая гвардия, белая стая, 
Белое воинство, белая кость
Влажные плиты травой зарастают...
Русские буквы - французский погост

Я прикасаюсь ладонью к истории, 
Я прохожу по гражданской войне
О, как же хотелось им в первопрестольную 
Въехать однажды на белом коне

Проигрыш=Вступление

Не было славы - не стало и Родины, 
Сердца не стало, а память жива!
Ваши сиятельства, их благородия - 
Вместе на Сент-Женевьев-де-Буа

Плотно лежат они, вдоволь познавшие 
Муки свои и дороги свои 
Вроде бы русские, вроде бы наши, 
Только не наши они, а ни чьи

Как они, после забытые бывшие, 
Всё проклиная, и нынче, и впредь, 
Рвались взглянуть на неё, победившую, 
Dm                 Am    Dm                 Am             
Пусть непонятную, пусть не простившую 
Dm         Am     E        Am   
   Землю родимую, и умереть... 

Полдень... Берёзовый отзвук покоя,
В небе российские купола
И облака, будто белые кони, 
Мчатся над Сент-Женевьев-де-Буа 

C        G            Dm     Am    
И облака, будто белые кони,
Dm                  Am              E         Am    
Мчатся над Сент-Женевьев-де-Буа
 


 
Последние комментарии

"Кто нибудь подскажет как правильно играть. Что значит пустой удар не касаясь струн? В какой момент бас играть, вообще не понятно"
 

"хорошо"
 

"Очень хочу найти ноты аккомпанемента Подождите, вы уходите"
 

"На музленде, тоже не дотягивают."
 

"Тональность Em здесь - оригинал?.."
Статистика

Онлайн всего: 95
Гостей: 95
Пользователей: 0
Вход на сайт