Accordium Delectus Подборка аккордов
 
Главная > М > Малинин Александр > Напрасные слова

Александр Малинин: Напрасные слова


Вступление:

E|--------0-2-3----------3-----3--------3-3--2-0----------------------------|

H|-0--2-4------------0-------0-------0-----------3-3--1---------------------|

G|-----------------0---0---0-------0----------------------------------------|

D|--------------------------------------------------------------------------|

A|----------------------------------------------------0---------------------|

E|------------0------------------0------------------------------------------|

 

E|---------0-2--------2-------------0-2-0----0-----------2--------1---------|

H|---0-1-3--------1-------1-------1--------3----3------3---3--------0-------|

G|-2------------2---2---2---2---0--------------------4-------4--------1-----|

D|-----------0-------------------------------------4-----------0--0---------|

A|----------------------------1-----------------2---------------------------|

E|--------------------------------------------------------------------------|


E|-1-1-0-----------0-------2-------------------0-----------0----------------|

H|--------1------1---1-------1---1-1-0---1-3-1---1---0---0------------------|

G|-------------2-------2-------2-------------------0---1--------------------|

D|-----------2-----------0-1------------------------------------------------|

A|--------0-----------------------------------------------------------------|

E|---------------------------------------------------3--------0-------------|

 

E|-------0-----------------------------3-----2--0----------12---------------|

H|-0-0-0--------------1--------------0---0----------0-----------------------|

G|---------0------2-----2----------2-------2------0----0--------------------|

D|--------------2---2-----2------1------------------------------------------|

A|--------------------------0--2--------------------------------------------|

E|-----------2----------------------------------0-----------0---------------|



                           Em                                Am    
Плесните колдовства в хрустальный мрак бокала,
                              H7                      Em
В расплавленных свечах мерцают зеркала
     Em7           C    C/H          Am    
Напрасные слова я выдохну устало,
                Am/F# Bdim7                          H7
Уже погас очаг,           ты новый не зажгла

Припев:

                     Em                          Am   
Напрасные слова, виньетка ложной сути,
                                D7 Bdim7                    Hm  Ddim7
Напрасные слова         нетрудно говорю
                          Am D#dim7                    E/G       G6 
Напрасные слова...        Уж вы не обессудьте,
                    Am/F# Bdim7                   H7 
Напрасные слова,           я скоро догорю

У вашего крыльца не вздрогнет колокольчик,
Hе спутает следов мой торопливый шаг
Вы первый миг конца понять мне не позвольте,
                          Am/F# H7                      Em  
Судьбу напрасных слов       не торопясь решать

Проигрыш: Em  Em-Em7-C  C  C-C/H-Am  H7+5 H7  Em

Придумайте сюжет о нежности и лете,
Где смятая трава и запах васильков
Рассыпанным драже закатятся в столетия
Напрасные слова, напрасная любовь


Припев.
 
Поделись с друзьями:
 
 
Последние комментарии

"Спасибо"
 

"Либерастическая хуйня"
 

"Какая светлая песня..."
 

"КЛАСС!!!!!"
 

"Кокой бой"
Статистика

Онлайн всего: 48
Гостей: 48
Пользователей: 0
Вход на сайт