Accordium Delectus Подборка аккордов
 
Главная > Н > Новиков Александр > Челобитная

Александр Новиков: Челобитная



Вступление:

E|-------0----1----------0----1-|
H|-----3---------------3--------|
G|---2------2--------2------2---|
D|-0---------------0------------|
A|------------------------------|
E|------------------------------|

E|-------0----1---------------3----0-|
H|-----3--------------------3--------|
G|---2------2-------------3------3---|
D|-0---------------------------------|
A|-----------------------------------|
E|----------------------3------------|
Молитва моя  -   челобитная к богу                  

E|------------0--------------3----0--------0-|
H|-------2-----------------3-------------2---|
G|-----0----0------------3------3------0-----|
D|---2---------------------------------------|
A|-0---------------------------------0-------|
E|---------------------3---------------------|
Не колокол, но и не звякнувший грош                              

E|-------0----1------------3----0-|
H|-----3-----------------3--------|
G|---2------2----------3------3---|
D|-0------------------------------|
A|--------------------------------|
E|-------------------3------------|
Иголка она среди колкого стога,                

E|------------0--------------0----1----------------|
H|-------2-----------------3-----------------------|
G|-----0----0------------2------2------------------|
D|---2-----------------0---------------------------|
A|-0-----------------------------------------------|
E|-------------------------------------------------|
   Но стог отгорит,    и иголку найдёшь                                       

Припев:

E|-------3----0-----------------------------0----1-|
H|-----3----------------------------------3--------|
G|---3------3---------------------------2------2---|
D|-5----------------------------------4------------|
A|-------------------------------------------------|
E|-------------------------------------------------|
Челобитная улетела стаей строчек со стола,              

E|-------3----0-------------------1----------------|
H|-----3------------------------1------1-----------|
G|---3------3-----------------2------2-------------|
D|--------------------------3----------------------|
A|-------------------------------------------------|
E|-3-----------------------------------------------|
С губ летела в небеса, как птица видная                         

E|-------3----0------------0----1------------------|
H|-----3-----------------3-------------------------|
G|---3------3----------2------2--------------------|
D|-------------------0-----------------------------|
A|-------------------------------------------------|
E|-3-----------------------------------------------|
Повторял её сто раз - знать не дошла                                           

E|---------3---------0---------0-------------------|
H|-------3---------2---------3------3--------------|
G|-----3---------0---------2------2----------------|
D|---5-------------------0-------------------------|
A|-------------0-----------------------------------|
E|-------------------------------------------------|
Челоби-и-и-и-тна-а-а-а-а-я                          

-----------------------------------------------------------------------------------------------

                     Dm                                 Gm     
Был грешен и тем – среди грешных безличен,
                                A7 B                             Gm  A7
Шёл праведным стать там, где праведных нет
           Dm                              Gm
И там вороньё в спину клювом мне тычет,
                      A7  B                 A7          Dm
И клейма-рубцы      ставит с криком на мне

Припев:

              Gm     Gm6                           A7            Dm  Dm6
Челобитная       улетела стаей строчек со стола,
                      Gm                C9                F         C9 D7
С губ летела в небеса, как птица видная
                    Gm                Gm6                  Dm  Bmaj7
Повторял её сто раз – знать, не дошла
       Gm      A7 Dm
Челоби-и-тна-а-я


И вышло молить – не до боли в коленях,
И вышло парить – не поверх облаков,
И вышло радеть – о бездомных сиренях,
И вышло гореть – не в пожарах врагов

Припев.

Gm   
Челобитная...

Проигрыш:

|Gm  Gm6|Gm6 A7 Dm|Gm  C9|F  C9 D7|

|Gm  Gm6|Dm  Bmaj7|Gm  A7|Dm  Dm|

Припев.

       Gm      A7 Dm
Челоби-и-тна-а-я

Бой на гитаре (примерный вариант):

 


 
Последние комментарии

"До слёз...буквально, в прямом смысле..."
 

"Спасибо"
 

"2 курс.Медляк"
 

"Отлично! Благодарю."
 

"Vielen Dank!"
Статистика

Онлайн всего: 108
Гостей: 108
Пользователей: 0
Вход на сайт