Accordium Delectus Подборка аккордов
 
Главная > Н > Новиков Александр > Может поздно, может слишком рано

Александр Новиков: Может поздно, может слишком рано




Em                                             
Может поздно, может слишком рано,
     Am6                       H7  
И о чём не думал много лет,
 G               C                       
Походить я стал на Дон-Жуана,
            E7                       Am 
Как заправский, ветреный поэт

H7                                     Em      
Я всегда хотел, чтоб сердце меньше
 H7                        D                  G  
Билось в чувствах, нежных и простых
        Am                   Em        
Что ищу в очах я этих женщин,
 F7                   H7            Em  
Легкодумных, лживых и пустых?

Припев:

 solo                                  H7    
Что случилось, что со мною стало?
H7                                  Em
Каждый день я у других колен,
Am                                  H7       
Каждый день к себе теряю жалость,
F#dim7  H7    D#dim7        H7
   Не смиряясь с горечью измен

Проигрыш:

E|----------------------2-|

H|----------------------0-|

G|----------------------2-|

D|---------0------------1-|

A|-----0-2---4-3---2----2-|

E|-2-3-----------3--------|


Удержи меня, моё презренье,
Я всегда отмечен был тобой
На душе - холодное кипенье
И сирени шелест голубой

На душе - лимонный свет заката,
И всё то же слышу сквозь туман
За свободу в чувствах есть расплата,
Принимай же вызов, Дон-Жуан!

Припев.

Проигрыш.

И, спокойно вызов принимая,
Вижу я, что мне одно и то ж -
Чтить метель за синий цветень мая,
Звать любовью чувственную дрожь

Так случилось, так со мною сталось,
И с того у многих я колен
Чтобы вечно счастье улыбалось,
Не смиряясь с горечью измен

Проигрыш:

                     H7                      Em   Am                H7     

E|------------------------------------------------------------------------|

H|------------------------------------------------------------------------|

G|------------------------------------------------------------------------|

D|-----0--------0-------------------------1-4-5----5-4--4-3-4--4-7-5-5--4-|

A|-2-3---3--2-3-----3-2----2-2--2-2-2--2----------------------------------|

E|------------------------------------------------------------------------|

 

F#dim7 H7   D#dim7     H7  

E|------------------------|

H|------------------------|

G|-5--4-4------5-4-5-4--4-|

D|--------7---------------|

A|------------------------|

E|------------------------|


Припев.

Окончание:

E|----------------------2---------0-|

H|----------------------0--------0--|

G|----------------------2-------0---|

D|---------0------------1------2----|

A|-----0-2---4-3---2----2-----2-----|

E|-2-3-----------3-----------0------|

Бой на гитаре (примерный вариант):

 


 
Последние комментарии

"затронуло за живое спасибо Аркаша!"
 

"Что-то ,как-то не очень воспроизводится песенка! Может технический брак?"
 

"Прекрасное исполнение."
 

"Си бемоль начало и так далее! валенки"
 

"Что вы за подборщик вам медведь насухо наступил там другие окорды в оригинале в исполнении Муслима магомаева"
Статистика

Онлайн всего: 159
Гостей: 159
Пользователей: 0
Вход на сайт