Accordium Delectus Подборка аккордов
 

Александр Новиков: Троица


          Em/H    C#dim7     H7       Em      Am6       H7       Em  

E|----------------0--------0--------2--0--------------2--------2--0-|

H|--------------0--------2--------0----0------------1--------0----0-|

G|------------0--------0--------2------0----------2--------2------0-|

D|-------------------------------------2--------------------------2-|

A|-0------1-2--------4--------2--------2--------0--------2--------2-|

E|-------------------------------------0--------------------------0-|

  Жизнь звучала, как ария,               Как высокий  девиз          

 

 

      Em/H    C#dim7     H7       Em      Am6      Dsus4     D       

E|------------0--------0--------2--0--------------2--------3-2------|

H|----------0--------2--------0----0------------1--------3----------|

G|--------0--------0--------2------0----------2--------2------------|

D|---------------------------------2-----------------0--------------|

A|-0-1--2--------4--------2--------2--------0-----------------------|

E|---------------------------------0--------------------------------|

  Забавлял на гитаре я             Двух прелестных девиц            


Am                  D              
И мелодия нервная
                           G   bass
Увивалась плющом -
F                             Em          
Так мне нравилась первая,
F          H7    Em   
И вторая ещё

Загорелые, гладкие,
Хохотали в луну
Мне казались мулатками,
И хотел хоть одну

Что-то пьяное выпелось,
Завело под дугой
Пел, на первую выпялясь,
А тянуло к другой


Из июля не вынырнуть,
Из цветочной реки,
Чтоб не всклочить, не вывернуть
Тихих клумб парики

И чем дальше, тем боязней
Без любви под луной
Так хотелось обоих мне,
Только, чур, по одной!


И однажды на встречу мне
Заявилась одна
Разухабистым вечером
Спутал бес-сатана

И амуры все с луками
Послетались сюда,
И больше я их подругами
Не встречал никогда...


Жизнь - прелестная ария
И высокий девиз
Забавлял на гитаре я
Двух прелестных девиц

Это всё не приснилось мне,
Но минуло, как вдох
Видно, божею милостью
Только в троице - Бог...

Бой на гитаре (примерный вариант):

 


 
Последние комментарии

"До слёз...буквально, в прямом смысле..."
 

"Спасибо"
 

"2 курс.Медляк"
 

"Отлично! Благодарю."
 

"Vielen Dank!"
Статистика

Онлайн всего: 105
Гостей: 104
Пользователей: 1
NickShanson4232
Вход на сайт