Accordium Delectus Подборка аккордов
 
Главная > Р > Радова Александра > Сарафанная Русь

Александра Радова: Сарафанная Русь



Упрощённый вариант


Gm6              A7          Dsus2         Dm     
E|-------------3---------------0-------------0------------1-----|
H|-----------3---3-----------2---2---------3---3--------3---3---|
G|---------3-------3-------0-------0-----2-------2----2-------2-|
D|-------2-----------------------------0------------0-----------|
A|-----------------------0--------------------------------------|
E|--------------------------------------------------------------|
Сделает жизнь вдруг поворот в беге не мы-ы-ы-ы-сленном           

Em7-5          A7          Cm6          D/F#        
E|-------------0------------0------------3------------2---------|
H|-----------3---3--------2---2--------4---4--------3---3-------|
G|---------0-------0----0-------0----5-------5----2-------2-----|
D|--------------------------------------------------------------|
A|-------1------------0------------0----------------------------|
E|----------------------------------------------2---------------|
Из западни суетных   дел    освободив                           

 Gm7           A7              Dm                 Dm7
E|-------------------------0----------------0-------------------|
H|------------3----------2---2------------3---3--------3-----3--|
G|----------3---3------0-------0--------2-------2----2-----2----|
D|--------3-------3-------------------0------------0------------|
A|-------------------0-----------------------------------3------|
E|------3-------------------------------------------------------|
И зазвучит,   в тишине растворённый таинственно,                

Em7-5      F/A      Gm      Gm6     Asus4          A7    
E|-----------------------------------------------0------------0-|
H|---------3---------1-------3--------3--------3---3--------2---|
G|-------0---------2-------3--------3--------2-------2----0-----|
D|--------------------------------------------------------------|
A|-----1---------0-------------------------0------------0-------|
E|-----------------------3--------0-----------------------------|
Наших русских лесов и полей сокровенный мотив                    

Припев:

Gm6          A7-9             Dm                              
E|-------3------------3----------------1------------------------|
H|-----3---3--------2---2------------3---3----------------------|
G|---3-------3----3-------3--------2-------2--------------------|
D|-2-----------------------------0------------------------------|
A|--------------0-----------------------------------------------|
E|--------------------------------------------------------------|
Яблоком       солнце по небу катится                       

 Em7-5          A7            Cm6                                 
E|-------0------------0-----------------------------------------|
H|-----3---3--------2---2----------4----------------------------|
G|---0-------0----0-------0------5------------------------------|
D|--------------------------------------------------------------|
A|-1------------0--------------0--------------------------------|
E|--------------------------------------------------------------|
Даст Господь,   я тебе пригожусь                             

D/F#  Gm            A7        Dm     Dm7                     
E|-------------3------------------------------------------------|
H|-----3-----3---3--------2----------3------3-------------------|
G|---2-----3-------3----0----------2------2---------------------|
D|-------------------------------0------------------------------|
A|--------------------0-----------------3-----------------------|
E|-2-----3------------------------------------------------------|
Ты  одна  в моём   сердце, краса-а-вица,                     

Em7-5  Gm/A    A7         D7sus2                                
E|------------3-------0-----------------------------------------|
H|-----3----3-------2---2--------1------------------------------|
G|---0------------0-------0----2--------------------------------|
D|---------------------------0----------------------------------|
A|-1------0-----0-----------------------------------------------|
E|--------------------------------------------------------------|
Жизнь моя,     Сарафанная Русь                               

D/F#  Gm            A7        Dm     Dm7                      
E|-------------3------------------------------------------------|
H|-----3-----3---3--------2----------3------3-------------------|
G|---2-----3-------3----0----------2------2---------------------|
D|-------------------------------0------------------------------|
A|--------------------0-----------------3-----------------------|
E|-2-----3------------------------------------------------------|
Ты  одна  в моём   сердце, краса-а-вица,                     

Em7-5  Gm/A    A7         D7sus2       A7+5                     
E|------------3-------0------------0------------1---------------|
H|-----3----3-------2---2--------1---1--------2-----------------|
G|---0------------0-------0----2-------2----0-------------------|
D|---------------------------0----------------------------------|
A|-1------0-----0-------------------------0---------------------|
E|--------------------------------------------------------------|
  Жизнь моя,     Сарафанная Русь                                 

Помнит земля наших отцов подвиги славные,
С ней календарь памятных дат стану листать
Ты научи и меня, чтобы понял я главное:
Как тебя ни чужим, ни своим в обиду не дать!

Припев.

Свет твой горит в каждом из нас, свеча негасимая -
В этом и есть русской души важный секрет!
Будь же детьми своими и Богом хранимая,
Нет тебя терпеливей, сильней и прекраснее нет!

Припев.

Окончание:

 Em7-5  Gm/A    A7         D7sus2                                 
E|------------3-------0------------0------0---------------------|
H|-----3----3-------2---2--------1---1----1---------------------|
G|---0------------0-------0----2-------2--2---------------------|
D|---------------------------0------------0---------------------|
A|-1------0-----0-----------------------------------------------|
E|--------------------------------------------------------------|
Жизнь моя,     Сарафанная Русь                               
 


 
Последние комментарии

"Спасибо! отличная песня."
 

"Интересно кто так бездарно подбирает?! В оригинале слабо что ли?"
 

"Простая и в тоже время прекрасная,душевная песня.Спасибо!"
 

"Дзякуй"
 

"Показать окорды"
Статистика

Онлайн всего: 49
Гостей: 49
Пользователей: 0
Вход на сайт