Accordium Delectus Подборка аккордов
 

Алексей Глызин: 19 лет


Вступление (примерный вариант):

  Cm              Fm                  G              Cm          

E|--------------------------------------------------------------|

H|------4-----------------9----------------3---------------4----|

G|------5----------------10----------------4---------------5----|

D|----5----5----------10-----10----------5----5----------5----5-|

A|-3---------------8----------------------------------3---------|

E|------------------------------------3-------------------------|

 

E|--------------------------------------------------------------|

H|----------------------------8-6-----------------6---8---------|

G|--------------------------------8/8-7----7--8-----------------|

 

 

  G#            D#            Fm                G               

E|------------------------------------------------------------|

H|------4-------------8---------------9--------------3--------|

G|------5-------------8--------------10--------------4--------|

D|----6----6--------8----8--------10-----10--------5----5-----|

A|---------------6-------------8------------------------------|

E|-4--------------------------------------------3-------------|

 

E|------------------------------------------------------------|

H|---------6---6-8-------------6-------------6----------------|

G|-8---------8----------------------------8-----7-------------|


  Cm                               Fm 
Третий день пошёл без меня,
 G                             Cm
Я остался там, на войне
 G#                           D#
Пуля-дура, третьего дня,
 Fm                             G
Молча поселилась во мне

Bm                          C7 
Нёс меня Серёга к своим,
 Fm                               G  
   Дождь рекою лил ему вслед...
   Cm                          Fm
Страшно помирать молодым
    G                                     Cm 
   В девятнадцать, с четвертью, лет...

Припев:

 G#                            D#     
Мама, этой ночью шёл дождь,
Bm                           C7
   Над землёю тихо он плыл...
Fm                            Cm    
Он тогда хотел мне помочь,
  G                         Cm 
   Мама, этой ночью я жил...

Проплывает тихо рассвет,
И встаёт за лесом заря,
Только вот меня уже нет,
Третий день пошёл без меня...


Мы с Серёгой думали там,
Что, когда вернёмся домой,
Долго будем спать по утрам,
И гулять всю ночь под луной

А когда рассеялся дым
   И забрезжил тихо рассвет...
И Серега стал вдруг седым
   В девятнадцать, с четвертью, лет...

Припев:

Мама, этой ночью шёл дождь,
   Над землёю тихо он плыл...
Он тогда хотел мне помочь,
   Мама, этой ночью я жил...

Проплывает тихо рассвет,
И встаёт за лесом заря,
Только вот меня уже нет,
         G                                Cm  G#
   Третий день пошёл без меня...

Переход на 1 полутон (на 1 лад) выше (C#m)

C#m                              F#m
Третий день пошёл без меня,
G#                           C#m
Я остался там, на войне
 A                             E
Пуля-дура, третьего дня,
F#m                           G#
Молча поселилась во мне

Hm                         C#7
Нёс меня Серёга к своим,
F#m                             G#
   Дождь рекою лил ему вслед...
  C#m                        F#m
Страшно помирать молодым
    G#                                   C#m
   В девятнадцать, с четвертью, лет...

Припев:

  A                              E       
Мама, этой ночью шёл дождь,
 Hm                          C#7
   Над землёю тихо он плыл...
F#m                           C#m    
Он тогда хотел мне помочь,
 G#                       C#m
   Мама, этой ночью я жил...

Проплывает тихо рассвет,
И встаёт за лесом заря,
Только вот меня уже нет,
   Третий день пошёл без меня...

Примерный вариант боя:

 


 
Последние комментарии

"Спасибо!"
 

"Замечание по песне. Песня поётся в мажорной тональности. Обратите внимание на аккорды - песня начинается и заканчивается мажорным тоническим аккордом. Просьба исправить заголовки тональностей."
 

"Играю и слезы текут!!!Как жаль,что нет уже доброй и ласковой Матери! Спасибо огромное за такие прекрасные песни!"
 

"Спасибо класс!"
 

"спасибо"
Статистика

Онлайн всего: 68
Гостей: 68
Пользователей: 0
Вход на сайт