Accordium Delectus Подборка аккордов
 
Главная > К > Классин Алексей > Наследники Победы

Алексей Классин: Наследники Победы

(слова и музыка Евгения Соколова)
 


Вступление:

      D7    Gm      A      B              Gm         A        Dm           
E|----8-10---------------------------------------------------------10-10-|
H|----------11---11-10---8-8------------8---------11-10-8----------------|
G|-7-------------------------10----9-10---10-9-10---------9-10-7---------|
D|-----------------------------------------------------------------------|
A|-----------------------------------------------------------------------|
E|-----------------------------------------------------------------------|

                Gm       A       Dm
Да, мы в России живём, ребята,
           Gm                C7              F  
Но забываем с вами мы порой о том,
                            Gm         A     Dm      Dm7
Что здесь война прошла когда-то,
                    B                      Gm6          A7sus4  A
Задев своим крылом в России каждый дом

           Gm   A         Dm
Не все дожили   до Победы,
                  Gm            C7                        F  
Закрыв страну своею грудью в трудный час
                   Gm        A       B     
С врагом сражались наши деды,
           Gm6            A               Dm 
И были деды те порою младше нас

Припев:

      D7   Gm   A        Dm   
Спасибо деду   за Победу,
             Gm                   C7                         F  
Что подарил он людям светлым, майским днём,
  D7    Gm              A          B      
И этот день - наш День Победы -
                Gm6             A              Dm   
Мы свято чтим и не забудем мы о нём!


Вот едут парни, девчонки - рядом,
И о войне из них не помнит ведь никто,
Но иногда поймают взглядом
Ту надпись на стекле соседнего авто

А в нём обычный парень едет,
Но о войне он никогда не забывал
И в благодарность родному деду
Он эту фразу на машине написал

Припев.

  D7    Gm              A          B      
И этот день - наш День Победы -
               Gm6             A              Dm  
Мы свято чтим и не забудем мы о нём!

Проигрыш:

Dm                                   Gm                            Dm/F   
E|----------------------------------------------------------------------|
H|-------10-8----10----------10-8-10-11----10-8-10-11----11--10--8--10--|
G|-7-7--------10-------7-7----------------------------------------------|
D|----------------------------------------------------------------------|
A|----------------------------------------------------------------------|
E|----------------------------------------------------------------------|

                        Gm6                  A   B                 
E|-----------------------------------------------------------------|
H|-10-8----10----10-8-10-11---10-8-11---10-8-11--------------------|
G|------10---------------------------------------------------------|
D|-----------------------------------------------------------------|
A|-----------------------------------------------------------------|
E|-----------------------------------------------------------------|

Переход на 1 полутон (на 1 лад) выше (D#m)

                  G#m    B    D#m 
Мы все - наследники Победы
           G#m                   C#7                     F#
И свято помнить, твёрдо помнить мы должны,
          G#m  C#7    F#   
Что воевали наши деды
               F7                                    B
И всему Миру мир и счастье принесли

               G#m C#7    F#  
Что побеждали наши деды
               G#m6            B                 D#m
И всему Миру мир и счастье принесли

Припев:

     D#7 G#m  B        D#m  
Спасибо деду    за Победу,
            G#m                C#7                        F# 
Что подарил он людям светлым, майским днём,
  D#7  G#m             B          H       
/И этот день - наш День Победы -
               G#m6          B              D#m
              Мы свято чтим и не забудем мы о нём!/ - 2 раза

Проигрыш:

     D#7    G#m    B      D#m              G#m          C#7          F#    
E|----9--11--9------------------------------9-----------------------------|
H|-------------12----11--9-9----------9--11----12-11--12-11--9-----9-11---|
G|-8-------------------------11----11--------------------------11---------|
D|------------------------------------------------------------------------|
A|------------------------------------------------------------------------|
E|------------------------------------------------------------------------|

    D#7   G#m       B       H                G#m6          B           D#m 
E|---9-11--------------------------------------------9--------------------|
H|---------12----12-11----9-9---------------9-----------12-11--9----------|
G|-8--------------------------11-----10-11----11--10-------------10--11-8-|
D|------------------------------------------------------------------------|
A|------------------------------------------------------------------------|
E|------------------------------------------------------------------------|

 D#7  G#m             B         H      
И этот день - наш День Победы -
              G#m6            B              D#m
Мы свято чтим и деда мы не подведём!

Бой на гитаре (примерный вариант):


 
Последние комментарии

"Сколько лет прошло, а моей мама нравится эта песня🎶"
 

"у Быкова хорошие песни"
 

"Эту песню нам пел Женя Зеленин наш одноклассник ещё в 1968 году. Это точно! Это его коронная песня. Наша молодость школьная!"
 

"Великолепно!"
 

"Очень приятно слышать песни своей молодости"
Вход на сайт