Accordium Delectus Подборка аккордов
 

Алексей Костюшкин: Я кот



Вступление:

  Am      H7/F#     Em                      Am       H7       Em /флажолет/  

E|-----0--------2-------2>3>5-3-3>2--------------0--------2-----------ф-----|

H|-----1--------0-------------------3-0----------1--------0---------ф---ф---|

G|---2---2----2---2---------------------2------2---2----2---2-----ф---------|

D|--------------------------------------------------------------------------|

A|-0-----------------------------------------0--------2---------------------|

E|----------2--------0-----------------------------------------0------------|

 

  Am       H7       Em                      Am       H7       Em             

E|-----0--------2-------2>3>5-3-3>2--------------0--------2----0-------0----|

H|-----1--------0-------------------3-0----------1-----------4-----0--------|

G|---2---2----2---2---------------------2------2---2----2--------0---0------|

D|--------------------------------------------------------------------------|

A|-0--------2--------------------------------0--------2---------------------|

E|-------------------0-----------------------------------------0------------|


   Am        H7       Em     Em/G          Am       H7       Em      Em/G       

E|------0---------2----------------0------------0--------2--------0--------0---|

H|------1---------0--------0---------0----------1--------0--------0--------0---|

G|----2---2-----2---2----0-------0------------2---2----2---2----0---0----0---0-|

D|-----------------------------------------------------------------------------|

A|--0---------2-----------------------------0--------2-------------------------|

E|---------------------0-----2-3------------------------------0--------3-------|

Танцуй   на краешке огня,        Смотри направо          и налево               

 

  Am          D             G                     Am      Am/F#        H7           

E|-----0----------2-----------------3------------------0--------0---------------2-|

H|-----1----------3-------------0----------------------1--------1-----------0-----|

G|---2---2------2---2---------0---0------------------2---2----2---2-------2---2---|

D|------------0-------------------------------------------------------------------|

A|-0-----------------------------------------------0--------------------2---------|

E|--------------------------3-------------------------------2---------------------|

Я кот,    и счастье  для меня    -    Мурлыкать в ложе             королевы        


Я кот, и чудо из чудес -

У ног божественных упавши,

Внимать величию небес

И ощущать себя пропавшим


Пропавшим раз и навсегда,

В тот омут, без конца и края,

Где тонут дни и города,

И я, счастливый, умираю...


Но нет, ведь я Вас так люблю!

И над распятою дорогой,

Моя Марго, я воспарю,

Чтоб стать Вам Мастером и Богом...


Проигрыш (как куплет) - 2 раза.


Окончание:

  Em      /флажолет/

E|-------0--ф-------|

H|-----0----ф-------|

G|---0------ф-------|

D|------------------|

A|------------------|

E|-0----------------|

Я кот…               

Флажолет - нежное (чуть-чуть!) прикосновение пальца над порожком между 12 и 13 ладами 

 


 
Последние комментарии

"Спасибо"
 

"Либерастическая хуйня"
 

"Какая светлая песня..."
 

"КЛАСС!!!!!"
 

"Кокой бой"
Статистика

Онлайн всего: 33
Гостей: 32
Пользователей: 1
grign1kolai
Вход на сайт