Accordium Delectus Подборка аккордов
 
Главная > М > Матов Алексей > Ты назначен быть героем

Алексей Матов: Ты назначен быть героем



Вступление:

E|--------------------------------------------------------------|

H|-5--5-6-5--------------------------5--5-6-5-------------------|

G|----------7-5------4------5-----------------7-5------4--------|

D|--------------7-7-----------7-7-----------------7-7---------7-|

A|---------------------7-7-------------------------------7-7----|

         E|--------------------------------------------------------------| - 2 раза


         Am                           
"Добровольцы шаг вперёд!" - 
         C                        
Добровольцев не нашлось
            G                    
Пот с лица комбат утрёт:
          Am                            
"Наступленье ровно в восемь...

Значит, слушай мой приказ: 
Проведём разведку боем
Лезь в броню, дави на газ - 
Ты назначен быть героем!"

        G                          
Если раны - то чуть-чуть, 
         Am                             
Если смерти - то мгновенной...
           G                  
Кто придумал эту муть?
           E                        
Не был он в бою, наверно

Проигрыш:

  Am     Dm     C     E     Am     Dm      C     E  

E|--------------------------------------------------|

H|----5---5----------------------5---5------------5-|

G|------7--------5--5--4--5-4------7--------5--5----|

D|-7---------7----------------7---------7-----------|

A|--------------------------------------------------|

E|--------------------------------------------------|


Шум в башке, хочу курить, 
Руки мёртвые, как палки
Ах, как хочется пожить, 
Самого себя так жалко!

У посёлка, в аккурат, 
Обнаружили колонну,
Передали: "Есть контакт!", 
Сбили "гусли" головному

Но калибр мелковат, 
Мы их в лоб не пробиваем...
"Эй, механик, сдай назад - 
Обнаружили, линяем!"

Проигрыш.

Попаданье под "погон", 
Не взорвались только чудом
Зажигательный патрон,
Нам не выбраться отсюда!

Разгорается пожар, 
Волдырями красит кожу
"Жми, механик, за амбар - 
Чую, пронесёт, быть может..."

Только всё напрасный труд, 
Саму малость не хватило,
И теперь эта броня - 
Наша братская могила...

Проигрыш.

        G                       Am              
И когда на небеса души тихо улетали,
          G                            E                     
Наши "тяжи" подошли, этих гадов раскатали!

Окончание:

  Am     Dm      C     E     Am     Dm      C     E        

E|-------------------------------------------------------|

H|----5---5----------------------5---5------------5------|

G|------7--------5--5--4--5-4------7--------5--5-----7-5-|

D|-7---------7----------------7---------7----------------|

A|-------------------------------------------------------|

E|-------------------------------------------------------|

 

  Am     Dm      C     E     Am     Dm      C     E     Am  

E|---------------------------------------------------------|

H|----5---5----------------------5---5------------5--------|

G|------7--------5--5--4--5-4------7--------5--5-----7-5---|

D|-7---------7----------------7---------7----------------7-|

A|---------------------------------------------------------|

E|---------------------------------------------------------|

 
Поделись с друзьями:
 
 
Последние комментарии

"Понравилась песня."
 

"Здорово. По-моему. лучшее исполнение"
 

"Клаааас!"
 

"Низкий поклон АНГЕЛАМ ПРИСЯГИ!!!"
 

"Классная песня , с великим смыслом СПАСИБО""
Статистика

Онлайн всего: 55
Гостей: 55
Пользователей: 0
Вход на сайт