Accordium Delectus Подборка аккордов
 
"
Главная > С > Сопалев Алексей > Одуванчики

Алексей Сопалев: Одуванчики



В оригинале на пол-тона ниже (D#m)

Вступление:

E|-0-----3-----2-0-0-----3-----2-0-0-----3-----2-0-0-----2-----0-0-|
H|-----0---0-----------1---1-----------1---1-----------0---0-------|
G|---0-------0-------0-------0-------2-------2-------2-------2-----|
D|-----------------------------------------------------------------|
A|-----------------3---------------0---------------2---------------|
         E|-0---------------------------------------------------------------| - 2 раза

E|-----------------------------------------------------------------|
H|---------0-------------------0------------0----------------------|
G|-------0---0---------0-----0---0--------0---0---------0-0--------|
D|-----4-------4-----2-----4------------4-------4-----2---4--------|
A|---2-----------2-3-----5------------2-----------2-3-----5--------|
E|-0--------------------------------0------------------------------|

-----------------------------------------------------------------------------------------

  Em                   C               Am                H7               
E|-------0-----0-------------0-----0----------0-----0----------2-----2---|
H|-----0---0-----0---------1---1-----1------1---1-----1------0---0-----0-|
G|---0-------0-----------0-------0--------2-------2--------2-------2-----|
D|-----------------------------------------------------------------------|
A|---------------------3----------------0----------------2---------------|
E|-0---------------------------------------------------------------------|
В детстве мы все были разные,          были вопросы   странные...         

  Em                 C               Am                  H7               
E|-------0-----0-----------0-----0----------0-----0------------2-----2---|
H|-----0---0-----0-------1---1-----1------1---1-----1--------0---0-----0-|
G|---0-------0---------0-------0--------2-------2----------2-------2-----|
D|-----------------------------------------------------------------------|
A|-------------------3----------------0------------------2---------------|
E|-0---------------------------------------------------------------------|
  Мама,   как   называется,          то что летит в облаках?              

-----------------------------------------------------------------------------------------

     E7                  Am                D                 G                
E|:---------0-----0--------------0-----0----------2-----2-----------3---------|
H|:-------3---3-----3----------1---1-----1------3---3-----3-------0---0-------|
G|:-----1-------1------------2-------2--------2-------2---------0-------0---0-|
D|:-----------------------------------------0---------------------------------|
A|:------------------------0--------------------------------------------------|
E|:---0-------------------------------------------------------3-----------3---|
 Ой, мама, смотри, что-то падает,        похожее    на    одуванчики           

  Em               Am                H7              Em                        
E|-------0-----0----------0-----0----------2-----2----------0-----0----------;|
H|-----0---0-----0------1---1-----1------0---0-----0------0---0-----0--------;|
G|---0-------0--------2-------2--------2-------2--------0-------0------------:|
D|---------------------------------------------------------------------------;|
A|------------------0----------------2---------------------------------------:|
         E|-0--------------------------------------------------0----------------------:| - 2 раза
  Женщина       улыбается:          "Это,  сынок,  десантники"                 

Время прошло, повзрослел мальчуган,
Мать вся в слезах, бесшумный перрон
Девчонка прижалась к его губам,
В армию уезжает он...

"Да вы не волнуйтесь милые,
Время пройдёт, и я вернусь домой
Я только хочу попробовать
Как одуванчики летят над землёй!"


Мужчиной стал он в армии,
Взгляд смелый и руки сильные
С бесстрашным взором прыгал он
Решительно в бездну синюю

/Но купол однажды подвёл его,
И, вылетев, стропы запутались,
А запасной он открыть не смог,
          Упал парашют, укутался/ - 2 раза


Время прошло, а девчонка та
Ведёт малыша по улице
Мальчишка поднял свои глаза,
Видя, как тучи хмурятся

/"Ой, мама, смотри что-то падает -
Похожее на одуванчики!"
Девушка вдруг заплакала:
            "Это, сынок, десантники"/ - 2 раза

Бой на гитаре (примерный вариант):

 
Поделись с друзьями:
 
 
Последние комментарии

"круть песня и аккорды!!!"
 
Александр Конкин «Красные маки: Лунатик

"на такое не способна рф ☺☺☺"
 

"✌ 👍"
 

"классная песня, очень понравилась. И исполнено в фильме прикольно!"
 

"Как верны эти Слова из песни - А если мы дружны, То все узлы должны распутаться. Хорошее предложение!"
Настройка гитары
1-ая струна E (ми)  

2-ая струна H (си)  

3-я струна G (соль) 

4-ая струна D (ре) 

5-ая струна A (ля) 

6-ая струна E (ми) 
Статистика

Онлайн всего: 8
Гостей: 7
Пользователей: 1
Justas
Вход на сайт