Accordium Delectus Подборка аккордов
 
Главная > Песни из кино - и мультфильмов > У природы нет плохой погоды

Алиса Фрейндлих: У природы нет плохой погоды (фильм Служебный роман)



Вступление (примерный вариант перебора):

  Em              Am               H7             Em                
E|---------0---------------0---------------2---------------0-------|
H|-----0-------0-------1-------1-------0-------0-------0-------0---|
G|---0---0---0---0---2---2---2---2---2---2---2---2---0---0---0---0-|
D|-2-----------------------------------------------2---------------|
A|-----------------0---------------2-------------------------------|
E|-----------------------------------------------------------------|

соло
E|-----------------------------------------------------------------|
H|-8--7-7-------8--7-7-------------7------------7------------------|
G|---------9-9----------9-9-----------9-9--8-8-----9-9--8-8--------|
D|---------------------------10------------------------------9-----|
A|-----------------------------------------------------------------|
E|-----------------------------------------------------------------|


  Em              Am               H7             Em                
E|---------0---------------0---------------2---------------0-------|
H|-----0-------0-------1-------1-------0-------0-------0-------0---|
G|---0---0---0---0---2---2---2---2---2---2---2---2---0---0---0---0-|
D|-2-----------------------------------------------2---------------|
A|-----------------0---------------2-------------------------------|
E|-----------------------------------------------------------------|

соло
E|---------------------------10--8--------------------------8-7------------|
H|-8--7-7-------8--7-7----------------7-8-10-8-7-8-10-8-7-8-----10-8-7-8---|
G|---------9-9----------9-9----------------------------------------------9-|
D|-------------------------------------------------------------------------|
A|-------------------------------------------------------------------------|
E|-------------------------------------------------------------------------|

Em                                  Am       
У природы нет плохой погоды -
         Am6          H7           Em   H7/F#
Каждая погода благодать
Dm/F                       E7           Am    
Дождь ли снег - любое время года
 C7             F#               H7 
Надо благодарно принимать

Am                                Em      
Отзвуки душевной непогоды,
      Am              D7            Dm   E7
В сердце одиночества печать,
Am                  D7             Gmaj7  
И бессонниц горестные всходы
      F#m7         H7              Em   Em7
Надо благодарно принимать,
C  Cmaj7 Am  Am7 Am6               H7
На-а-до   бла-а-го-о-дарно принимать

Проигрыш=Вступление

Cмepть желаний, годы и невзгоды -
С каждым днём всё непосильней кладь,
Что тебе назначено природой
Надо благодарно принимать

Смену лет, закаты и восходы,
И любви последней благодать,
Как и дату своего ухода
Надо благодарно принимать,
Надо благодарно принимать

Проигрыш:

|C7  F#|H7  H7|

Am                                  Em      
У природы нет плохой погоды,
    Am                     D7         Dm   E7
Ход времён нельзя остановить
Am                   D7           Gmaj7   
Осень жизни, как и осень года,
      F#m7             H7              Em   Em7
Надо, не скорбя, благословить,
C  Cmaj7 Am Am7   Am6              H7 
На-а-до,    не ско-о-рбя, благословить,
C7                H7              Em 
Надо, не скорбя, благословить

Окончание=Вступление

Бой на гитаре (примерный вариант):

 


 
Последние комментарии

"Замечательная.."
 

"В припеве вместо B7 напрашивается Bb"
 

"Волшебно-ЖИВОЕ иполнен е"
 

"Очень симпатичная песня! Простые слова с глубоким смыслом. Хочется петь и петь.👍"
 

"Красивая песня."
Статистика

Онлайн всего: 95
Гостей: 95
Пользователей: 0
Вход на сайт