Accordium Delectus Подборка аккордов
 
"
Главная > П > Петровская Алёна > Очередь за счастьем

Алёна Петровская: Очередь за счастьем

(из репертуара Валентины Толкуновой)
 


В оригинале начинается на пол-тона ниже, а потом переходит в эту тональность (Am)


Вступление:

E|-8---8--7---7--5---5--4---4--5-----5-8-5----5---5----4---4-|

H|---------------------------------5-------6-----------------|

G|---5------5------5------4------5--------------4---4----4---|

D|-7------5------3------2------3--------------2--------2-----|

A|-----------------------------------------------------------|

E|-----------------------------------------------------------|


E|-----------------------------------------------------------|

H|---------1----------------1--------------------------------|

G|-----2-------2--------2-------2----------------------------|

D|---2---2---2---2----2---2---2---2--------------------------|

A|-0----------------0----------------------------------------|

E|-----------------------------------------------------------|


 Am                             Hm7-5   E7
Счастье мне расхваливают часто
Hm7-5          E7            Am
Самыми красивыми словами
 F                 G              Csus4 C Cadd9 C
Только где же очередь за счастьем?
Dm            D#dim7        E7sus4  E7(2)
Люди, кто последний? Я за вами!

Припев:

Dm   Hm7-5
Люди,        кто последний?
Am    F#m7-5
Люди,           кто последний?
Hm7-5                         E7           Am   E/H  C6+9  A7/C#
Кто последний, люди? Я за ва-а-ми-и-и-и-и-и-и

Люди, кто последний?
Люди, кто последний?
Hm7-5                         E7           Am
Кто последний, люди? Я за вами...

Проигрыш=Вступление

Мне твердят, что счастье – в нашей власти...
Лучше б адресок его назвали!
Ах, найти бы очередь за счастьем!
Люди, кто последний? Я за вами...

Припев.

Вот бы мне со счастьем повстречаться,
Эх мы бы с ним тогда потолковали!
Занимаю очередь за счастьем:
Люди, кто последний? Я за вами!

Припев.

Hm7-5                         E7            Am
Кто последний, люди? Я за вами...

Окончание:

E|-8---8--7---7--5---5--4---4----5-|

H|-------------------------------5-|

G|---5------5------5------4------5-|

D|-7------5------3------2--------7-|

A|-------------------------------0-|

E|---------------------------------|

 
Поделись с друзьями:
 
 
Последние комментарии

"Здравствуйте! В тексте написан аккорд Gm/E, а при наведении мышкой выскакивает Em7-5. Что должно быть на самом деле?"
 

"Очень красивая песня"
 

"Понимаю песню."
 

"Амэнь!"
 

"В Иркутске опять дождь и монотонный и ленивый)))"
Настройка гитары
1-ая струна E (ми)  

2-ая струна H (си)  

3-я струна G (соль) 

4-ая струна D (ре) 

5-ая струна A (ля) 

6-ая струна E (ми) 
Статистика

Онлайн всего: 31
Гостей: 31
Пользователей: 0
Вход на сайт