Accordium Delectus Подборка аккордов
 

Амир Пугоев: Время



Смотреть в тональности Am


Вступление:

      F#m                     C#m
E|-----------4------4---------------------------|
H|-4~5~4---5---7--7---7----7~9~7-5-4-7-5--5-7-5-|
G|-------6--------------------------------------|
D|----------------------------------------------|
A|----------------------------------------------|
E|----------------------------------------------|

      G#                     C#m
E|----------------------------------------------|
H|-5~7~5-4---5-4--4-5-4----7~9~7-5-4-7-5--5-7-5-|
G|---------6------------------------------------|
D|----------------------------------------------|
A|----------------------------------------------|
E|----------------------------------------------|

      F#m                     C#m
E|-----------4------4---------------------------|
H|-4~5~4---5---7--7---7----7~9~7-5-4-7-5--5-7-5-|
G|-------6--------------------------------------|
D|----------------------------------------------|
A|----------------------------------------------|
E|----------------------------------------------|

       G#                     C#m
E|----------------------------------------------|
H|-5~7~5-4---5-4--4-5-4----4~5~4-----4------4---|
G|---------6---------------------6-5---6--6---6-|
D|----------------------------------------------|
A|----------------------------------------------|
E|----------------------------------------------|

C#m                               F#m           
Морщинки, словно паутинки,
G#                               C#m     
Всё чаще вижу на лице
C#m                                  F#m           
Усталость чувствую в коленях,
H7                                   E      
На убыль жизнь идёт моя

Припев:

C#7                               F#m           
Остановись, моё ты время,
H7                                      E   G#       
Дай досказать, дай долюби-и-ить
C#m                              F#m        
Я знаю, ты меня сильнее,
G#sus4                 G#           C#m             
Но дай немного мне пожить!


Как много я ещё не сделал -
То не хотел, то не успел
Как поздно всё мы понимаем
И каемся в грехах своих

Припев.

Проигрыш=Вступление

Переход на 1 полутон (на 1 лад) выше (Dm)

Dm                                     Gm         
Теперь всё чаще, в небо глядя,
A                                Dm      
Прошу прощенья у небес,
Dm                                 Gm            
Что не достаточно был добрым
C7                                  F        
И часто близких забывал

Припев:

D7                             Gm        
Остановись, моё ты время,
C7                                       F    A         
Дай досказать, дай долюби-и-ить
Dm                              Gm        
Я знаю, ты меня сильнее,
Asus4                  A             Dm            
Но дай немного мне пожить!

Остановись, моё ты время,
Дай досказать, дай долюбить
Я знаю, ты меня сильнее,
Но дай немного мне пожить!

Я знаю, ты меня сильнее,
Но дай немного мне пожить!

Бой на гитаре (примерный вариант):

 


 
Последние комментарии

"а где найти ноты к этой песне"
 

"Исполнение просто супер,нет слов,с душой тревогой в душе!!!Можно слушать и слушать???"
 

"Спасибо. Класс!"
 

"класс"
 

"Круть😃😃😃"
Статистика

Онлайн всего: 22
Гостей: 22
Пользователей: 0
Вход на сайт