Accordium Delectus Подборка аккордов
 
Главная > К > Киреев Анатолий > Сколько зим, сколько лет

Анатолий Киреев: Сколько зим, сколько лет



Вступление:

соло
E|-------------------------------------------------|
H|-----6-----5-------------------------------------|
G|---7---------5---------------8-7-5---------------|
D|-7-------------7-------------------8-7-5---------|
A|-------------------------------------------------|
E|-------------------------------------------------|

      Gm7    C7  Fmaj7        Cm6    D7   Gm        
E|-------------------0-0---0-0---------------3-3---|
H|-------3-3---1-1---1-1---1-1---4-4---3-3---3-3---|
G|-------3-3---3-3---2-2---2-2---5-5---5-5---3-3---|
D|-------3-3---2-2-3-------------5-5---4-4---------|
A|-----------3-----------3-----------5-------------|
E|-----3-----------------------5-----------3-------|


соло
E|-------------------------------------------------|
H|-------------------------------------------------|
G|-------------------------------------------------|
D|-7-5---------8-7-5-------------5-----------------|
A|-----8---------------------------8-7-5-4-5-------|
E|-------------------------------------------------|

   A7    B     D7   Gm          Gm6    A7   Dm      
E|---0-0---------------3-3---3-3---3-3---0-0---1-1-|
H|---2-2---6-6---3-3---3-3---3-3---3-3---2-2---3-3-|
G|---0-0---7-7---5-5---3-3---3-3---3-3---0-0---2-2-|
D|---------8-8---4-4-------------------------0-----|
A|-0-----------5-----------------------0-----------|
E|-------6-----------3-----3-----0-----------------|


соло
E|----10-13---12----------------11-10--------------|
H|-10------------13-10----------------13-11-10-8---|
G|-------------------------------------------------|
D|-------------------------------------------------|
A|-------------------------------------------------|
E|-------------------------------------------------|

  Dm    Gm7   C7   Fmaj7        Cm6    D7   Gm      
E|---1-1---------------0-0---0-0---------------3-3-|
H|---3-3---3-3---1-1---1-1---1-1---4-4---3-3---3-3-|
G|---2-2---3-3---3-3---2-2---2-2---5-5---5-5---3-3-|
D|-0-------3-3---2-2-3-------------5-5---4-4-------|
A|-------------3-----------3-----------5-----------|
E|-------3-----------------------5-----------3-----|


соло
E|-------------------------------------------------|
H|-10-8--------11-10-8-----------8-6---------------|
G|------10---------------------------9-7-6-7-------|
D|-------------------------------------------------|
A|-------------------------------------------------|
E|-------------------------------------------------|

   A7    B     D7   Gm          Gm6    A7            
E|---0-0---------------3-3---3-3---3-3---0-0-------|
H|---2-2---6-6---3-3---3-3---3-3---3-3---2-2-------|
G|---0-0---7-7---5-5---3-3---3-3---3-3---0-0-------|
D|---------8-8---4-4-------------------------------|
A|-0-----------5-----------------------0-----------|
E|-------6-----------3-----3-----0-----------------|

   Dm  Dmadd9 Em7-5   A7      
E|:-------0-------3-3---0-0-:|
H|:-----3---3-----3-3---2-2-:|
G|:---2-------2---3-3---0-0-:|
D|:-0-----3-----2-----------:|
A|:-------------------0-----:|
         E|:-------------------------:| - 2 раза

                   Dm               Dm/F       Em7-5  A7
Сколько зим, сколько лет на планете,
                   Dm         Dm/F          Gm7  C7
Предназначенной нам по судьбе
          Fmaj7            Bmaj7
Знал я всё о зиме и о лете,
                   Gm       Gm/F Em7-5  A7
Но не знал ничего о тебе

       Cm6         D7           Gm
Мы как-будто бы ходим по кругу,
        Cm6      D7     Gm  A7
И ему окончания нет,
        B         D7              Gm
Но когда мы увидим друг друга,
     Gm6               A7               Dm
Я скажу: "Сколько зим, сколько лет!"

Припев:

             Gm7    C7     Fmaj7
Сколько зим, сколько лет,
Cm6       D7   Gm 
Даже не верится,
A7      B  D7     Gm
То ли да, то ли нет,
Em7-5      A7  Dm
Смеем надеяться

              Gm7    C7     Fmaj7
Сколько зим, сколько лет
Hm7          E7   A7  
Не возвращаются...
D7       Gm7   C7     Fmaj7
Хочешь верь, хочешь нет -
  Em7            A7 Cm6
Мы повстречаемся
 D7      Gm7    C7      Fmaj7
Хочешь верь, хочешь нет -
Em7            A7 Dm
Мы повстречаемся

Проигрыш:

   Dm  Dmadd9 Em7-5   A7      
E|:-------0-------3-3---0-0-:|
H|:-----3---3-----3-3---2-2-:|
G|:---2-------2---3-3---0-0-:|
D|:-0-----3-----2-----------:|
A|:-------------------0-----:|
         E|:-------------------------:| - 2 раза

Белым снегом покроются крыши,
Или с неба прольётся вода
Мне бы только твой голос услышать,
Я узнаю его без труда!

Он придёт, тот единственный вечер,
Ничего невозможного нет
Я тебя обязательно встречу
И скажу: "Сколько зим, сколько лет!"

Припев:

Сколько зим, сколько лет,
Даже не верится,
То ли да, то ли нет,
Смеем надеяться

Сколько зим, сколько лет
Не возвращаются...
Хочешь верь, хочешь нет -
Мы повстречаемся
Хочешь верь, хочешь нет -
Em7            A7 Gm7
Мы повстречаемся



Бой на гитаре (примерный вариант):

 


 
Последние комментарии

"Супер"
 

"хороший разбор. респект"
 

"СУПЕР!!!"
 

"очень нравится эта песня..."
 

"Я не поняла??? Это Шпаликов??? Это стихи Бориса Рыжего!"
Статистика

Онлайн всего: 54
Гостей: 54
Пользователей: 0
Вход на сайт