Accordium Delectus Подборка аккордов
 

Анатолий Тукиш: Хозяйка

(слова и музыка Димы Григорьева)
 


Можно сыграть перебором "семёрка": бас, 3-я, 2-я, 1-я, пробел, 3-я, 2-я, 3-я

Вступление:

E|-5-----5----------5-----5-----------4-|
H|---5------5--3------5------5--3---3---|
G|-----5----5--4--------5----5--4-4-----|
D|--------------------------------------|
A|-0-----------0----3-------------------|
         E|------------------------------0-------| - 2 раза

   Dm                        Am                
Хозяйка, хозяйка, постой горевать,
     Dm                   Fmaj7
Согрею душевной беседой
     G           C      G                 C    
Хозяйка, хозяйка, пусти ночевать,
 Dm          Am     E      F 
А утром навеки уе-е-ду,
 Dm          Am     E    Am
А утром навеки уе-е-ду

Проигрыш=Вступление

Незваный гостёчек, c крылечка сойди -
Боюсь, не принёс бы ты лиха
Незваный гостёчек, меня не суди,
Ведь баба, известно, трусиха,
Ведь баба, известно, трусиха

Проигрыш=Вступление

Хозяйка, хозяйка, такая метель!
В жестокости много ли прока?
А ты бы могла постелить мне постель,
И я бы уснул у порога,
И я бы уснул у порога

Проигрыш=Вступление

Незваный гостёчек, оставь мой порог,
А коли совсем приморозит -
В соседской избёнке живёт старичок,
Он добрый, он денег не спросит,
Он добрый, он денег не спросит

Проигрыш=Вступление

Ушёл... Опустилась, вздохнув, на скамью,
Тихонько о прошлом грустила,
Ругала морозы и долю свою,
Когда бы вернулся – впустила,
Когда бы вернулся – впустила

Окончание:

Вступление:

E|-5-----5----------5-----5-----------4-|          E|----5|
H|---5------5--3------5------5--3---3---|          H|---5-|
G|-----5----5--4--------5----5--4-4-----|          G|--5--|
D|--------------------------------------|          D|-----|
A|-0-----------0----3-------------------|          A|-----|
E|------------------------------0-------| - 4 раза E|-0---|

 
Последние комментарии

"хорошая песня и разбор хорош"
 

"второй аккорд в припеве АШ, не в тему"
 

"молодец"
 

"а где найти ноты к этой песне"
 

"Исполнение просто супер,нет слов,с душой тревогой в душе!!!Можно слушать и слушать???"
Статистика

Онлайн всего: 26
Гостей: 26
Пользователей: 0
Вход на сайт