Accordium Delectus Подборка аккордов
 
Главная > А > Алёшкин Андрей > Цыганочка

Андрей Алёшкин: Цыганочка



Вступление:

Dm            Am          E              Am       A7     
E|----------------------------------4-----4-5-4-5-6-5-------|
H|-8--6--6-5-6-8-6--5--5----5-4-5-7---5-7-------------8-6-5-|
G|----------------------------------------------------------|
D|----------------------------------------------------------|
A|----------------------------------------------------------|
E|----------------------------------------------------------|

  Dm            Am          E              Am     A7         
E|----------------------------------4-----4-5-----5---------|
H|-8--6--6-5-6-8-6--5--5----5-4-5-7---5-7-------------------|
G|----------------------------------------------------------|
D|----------------------------------------------------------|
A|----------------------------------------------------------|
E|----------------------------------------------------------|

  Dm            Am          E              Am       A7       
E|----------------------------------4-----4-5-4-5-7-8-7-5---|
H|-8--6--6-5-6-8-6--5--5----5-4-5-7---5-7-----------------8-|
G|----------------------------------------------------------|
D|----------------------------------------------------------|
A|----------------------------------------------------------|
E|----------------------------------------------------------|

  Dm            Am          E              Am                
E|----------------------------------4-----4-5---------------|
H|-8--6--6-5-6-8-6--5--5----5-4-5-7---5-7-------------------|
G|----------------------------------------------------------|
D|----------------------------------------------------------|
A|----------------------------------------------------------|
E|----------------------------------------------------------|

Dm               
Что за речка без ракушек,
Am         
Что за печка без огня,
E               
Что за детство без игрушек
       Am               A7
Или цыган без коня?

Dm            
Что за горец без отары,
Am          
Что за ночка без луны,
E             
Что за праздник без гитары,
       E                 Am
А гитара без струны?

Припев:

A7 Dm                          Am            
И    эх, тари-дари-дари-дай-да-да,
E                            Am   A7     
Тари-дари-дари-дай-дай
Dm                           Am            
Оп, тари-дари-дари-дай-да-да
E                            Am   A7      
Тари-дари-дари-дай-дай


Что за море без прибоя,
Что без печени треска,
Пьянка что без мордобоя -
Скукотища и тоска

Что без веника парилка,
Что без спицы колесо,
Что без закуси бутылка -
Просто пойло, да и всё!

Припев - 2 раза

Что художнику натура
Без берёз и тополей,
И купюра не купюра,
Если Жоржа нет на ней

Что за песня без припева,
Что без профиля анфас,
Что за жизнь без револьвера,
А особенно сейчас

Припев - 2 раза.

Dm           Am            
Дай гитару - пробегу
  E                   Am A7 
Пальцами по стру-нам
Dm                 Am           
Пусть соседи спят давно,
E               Am A7
А в моём дому  их

Dm                 Am                   
Полупьяные друзья,
E               Am A7
И звенит посу-да
Dm              Am          
Мама, я без них пойми
    E             Am 
Просто не могу!

Припев - 2 раза.

Окончание:

|Dm  Am|E  Am>A7|Dm  Am|E  Am|

Бой на гитаре (примерный вариант):


 
Последние комментарии

"А какой бой для этой песни?"
 

"благодарю"
 

"Я гей"
 

"Вспомнил"
 

"Я её очень люблю"
Статистика

Онлайн всего: 29
Гостей: 29
Пользователей: 0
Вход на сайт