Accordium Delectus Подборка аккордов
 
Главная > Б > Бандера Андрей > Незнакомка

Андрей Бандера (Эдуард Изместьев): Незнакомка


Вступление: Am  Hm7-5  E  Am  Am/G  Fmaj7  Dm  E  Am


       Am     Am/C Hm7-5    
Ты загадочная и странная,
                  E             Am     Am/G
Как видение, невесомая
     Fmaj7          Dm       
И далёкая, и желанная,
             E                  Am       E
Незнакомка моя, знакомая

Я в мечтах утонул, как в облаке,
И дышу, от случая к случаю...
А твоим, придуманным обликом,
Опьяняю себя и мучаю

Ты явилась ко мне знамением,
Неожиданной и незваною
Не могу стряхнуть наваждение,
И не хочется, ну не странно ли!

Мне и верится, и не верится -
Я запутался окончательно
Но боюсь, не смогу осмелиться,
Навсегда останусь мечтателем...

Проигрыш: Am  Hm7-5  E  Am  Am/G  F  Dm  E  Am

Всё останется незаконченым,
Недописаным, недосказаным
Не хочу быть слишком настойчивым,
Чтобы боль свою не показывать

Как видение, невесомая,
Удивительная, нежданная,
Незнакомка моя знакомая,
        E              Am         
И далёкая, и желанная...

Am/G                                                    Am/C

   

Примерный вариант перебора:

          Am         Am/C        Hm7-5                              

E|------0-----------0-----------1-----------1---|

H|------1-----------1-----------0-----------0---|

G|----2---2-------2---2-------2---2-------2---2-|

D|-------------------------------------0--------|

A|-0-----------3-----------2--------------------|

E|----------------------------------------------|

               E                      Am        Am/G                      

E|------0-----------0-----------0-----------0---|

H|------0-----------0-----------1-----------1---|

G|----1---1-------1---1-------2---2-------2---2-|

D|-2--------------------------------------------|

A|-------------2-----------0--------------------|

E|-------------------------------------3--------|

  Fmaj7                     Dm                       

E|------0-----------0-----------1-----------1---|

H|------1-----------1-----------3-----------3---|

G|----2---2-------2---2-------2---2-------2---2-|

D|-3-----------------------0--------------------|

A|-------------3-----------------------0--------|

E|----------------------------------------------|

E                      Am                   

E|------0-----------0-----------0-----------0---|

H|------0-----------0-----------1-----------1---|

G|----1---1-------1---1-------2---2-------2---2-|

D|-2-----------------------------------2--------|

A|-------------2-----------0--------------------|

E|----------------------------------------------|


 


 
Последние комментарии

"Вы это песню выкладывали в исполнении "Цветов"."
 

"Любые слова, похвалы, не смогут выразить признательность авторам, Михаилу Таничу и Серёже Коржукову. Земля им пухом."
 

"После знака / идет басовая нота , которую надо играть, например F#/B это аккорд фа диез с басовой си или h7/d# аккорд си септ с басовой ре диез, обычно басовые ноты играются когда идет перебор аккорда (арпеджио)..."
 

"Что за аккорды: F#/В и H7/D# ?.. их в сборнике нету..."
 

"У Валерия Кузнецова другая музыка H7 E7 Am Dm G C A7 Dm H7 E7 G C A7 Dm Dm Am H7 E7 Am"
Статистика

Онлайн всего: 52
Гостей: 52
Пользователей: 0
Вход на сайт