Accordium Delectus Подборка аккордов
 
Главная > Н > Наволоцкий Андрей > Невероятный сон

Андрей Наволоцкий: Невероятный сон



    Bm                                      Fm                                      
E|-------------------------------------------------------------------------------|
H|-----2---------2---------2---------2---------1---------1---------1---------1---|
G|-------3---------3---------3---------3---------1---------1---------1---------1-|
D|---3---------3---------3---------3---------3---------3---------3---------3-----|
A|-1---------1---------1---------1-----------------------------------------------|
E|-----------------------------------------1---------1---------1---------1-------|
  Сердце приковано   крепко,              сердце  лежит  на  плахе                
    Cm                                      Gm                                     
E|-------------------------------------------------------------------------------|
H|-----4---------4---------4---------4---------3---------3---------3---------3---|
G|-------5---------5---------5---------5---------3---------3---------3---------3-|
D|---5---------5---------5---------5---------5---------5---------5---------5-----|
A|-3---------3---------3---------3-----------------------------------------------|
E|-----------------------------------------3---------3---------3---------3-------|
  Сердце почти   не   дышит,              кисть твоя на     замахе                
    D#m                                     Bm                                       
E|-------------------------------------------------------------------------------|
H|-----7---------7---------7---------7---------2---------2---------2---------2---|
G|-------8---------8---------8---------8---------3---------3---------3---------3-|
D|---8---------8---------8---------8---------3---------3---------3---------3-----|
A|-6---------6---------6---------6---------1---------1---------1---------1-------|
E|-------------------------------------------------------------------------------|
  Но,   улыбнувшись   нежно,             снова    беру     за руки                
    Fm                                      Bm                                     
E|-------------------------------------------------------------------------------|
H|-----1---------1---------1---------1---------2---------2---------2---------2---|
G|-------1---------1---------1---------1---------3---------3---------3---------3-|
D|---3---------3---------3---------3---------3---------3---------3---------3-----|
A|-----------------------------------------1---------1---------1---------1-------|
E|-1---------1---------1---------1-----------------------------------------------|
 Спи,    улыбаясь     нежно, в снах нет разлуки                                   

Припев:

    D#m                                     Bm                                      
E|-------------------------------------------------------------------------------|
H|-----7---------7---------7---------7---------2---------2---------2---------2---|
G|-------8---------8---------8---------8---------3---------3---------3---------3-|
D|---8---------8---------8---------8---------3---------3---------3---------3-----|
A|-6---------6---------6---------6---------1---------1---------1---------1-------|
E|-------------------------------------------------------------------------------|
  Не     вероятный    сон,                там мы с тобой   вдвоём                 
    D#m                                     Bm                                       
E|-------------------------------------------------------------------------------|
H|-----7---------7---------7---------7---------2---------2---------2---------2---|
G|-------8---------8---------8---------8---------3---------3---------3---------3-|
D|---8---------8---------8---------8---------3---------3---------3---------3-----|
A|-6---------6---------6---------6---------1---------1---------1---------1-------|
E|-------------------------------------------------------------------------------|
  Там только нежность рук,                там больше нет   разлук                 
    D#m                                     Bm                                      
E|-------------------------------------------------------------------------------|
H|-----7---------7---------7---------7---------2---------2---------2---------2---|
G|-------8---------8---------8---------8---------3---------3---------3---------3-|
D|---8---------8---------8---------8---------3---------3---------3---------3-----|
A|-6---------6---------6---------6---------1---------1---------1---------1-------|
E|-------------------------------------------------------------------------------|
  Не     вероятный    сон,                там мы с тобой   вдвоём                 
    D#m                                     Bm                                       
E|-------------------------------------------------------------------------------|
H|-----7---------7---------7---------7---------2---------2---------2---------2---|
G|-------8---------8---------8---------8---------3---------3---------3---------3-|
D|---8---------8---------8---------8---------3---------3---------3---------3-----|
A|-6---------6---------6---------6---------1---------1---------1---------1-------|
E|-------------------------------------------------------------------------------|
  Там только нежность рук...                                                      

Проигрыш:

    Bm                                      Fm                                      
E|-------------------------------------------------------------------------------|
H|-----2---------2---------2---------2---------1---------1---------1---------1---|
G|-------3---------3---------3---------3---------1---------1---------1---------1-|
D|---3---------3---------3---------3---------3---------3---------3---------3-----|
A|-1---------1---------1---------1-----------------------------------------------|
E|-----------------------------------------1---------1---------1---------1-------|

Любишь слова и кольца,
Цепи, что нас держали
Вновь провожать не хочешь,
Губы твои задрожали

Я подойду тихонько
И обниму за плечи
Сон будет очень сладким,
Любовь бесконечна

Припев:

Невероятный сон,
Там мы с тобой вдвоём
Там только нежность рук,
Там больше нет разлук

Невероятный сон,
Там мы с тобой вдвоём
D#m                          
Нет грусти места там,
Bm                      
Верю твоим губам

D#m             Bm    
Невероятный сон...
Невероятный сон...

Припев:

Невероятный сон,
Там мы с тобой вдвоём
Там только нежность рук,
Там больше нет разлук
 
Поделись с друзьями:
 
 
Последние комментарии

"Спасибо! отличная песня."
 

"Интересно кто так бездарно подбирает?! В оригинале слабо что ли?"
 

"Простая и в тоже время прекрасная,душевная песня.Спасибо!"
 

"Дзякуй"
 

"Показать окорды"
Статистика

Онлайн всего: 46
Гостей: 46
Пользователей: 0
Вход на сайт