Accordium Delectus Подборка аккордов
 
Главная > Н > Никольский Андрей > Положила руку

Андрей Никольский: Положила руку



Вступление (примерный вариант перебора):

  Dm      A7/E     Dm/F      D/F#     Gm      Gm/E       F      D/F#       

E|-----1--------0--------1--------2--------3--------3--------1--------2---|

H|-----3--------2--------3--------3--------3--------3--------1--------3---|

G|---2---2----0---0----2---2----2---2----3---3----3---3----2---2----2---2-|

D|-0--------2--------3--------4--------5--------2--------3--------4-------|

A|------------------------------------------------------------------------|

E|------------------------------------------------------------------------|

 

  Gm      Gm/E      Dm      Dm/A      E/H            A7             

E|-----3--------3--------1--------1--------------0-------------0--|

H|-----3--------3--------3--------3------------0-------------1----|

G|---3---3----3---3----2---2----2---2--------1-------------0------|

D|-5--------2--------0--------------------------------------------|

A|----------------------------0--------2--------------0-----------|

E|----------------------------------------------------------------|


   Dm                    Gm      C         F   D/F#
Положила руку на лицо судьба,
Gm      Gm/E  Dm    E                     A7     
Подарила серые, с зеленью, глаза
 Dm                        Gm      C      F     D/F# 
Подарила радость, и ещё печаль...
Gm        Gm/E     Dm   A7                  Dm   A7 
Для тебя - сентябрь, для меня - январь


Dm      A7/E Dm/F   D/F# Gm         C      F    D  
И кочуют вёсны,            оставляя след,
Gm     Gm/E   Dm   E                   A7       
И терял я годы, с них беря ответ
      Dm         A7/E  Dm/F D/F# Gm          C         F     D/F#    
Для чего разлука,            и сплетенье вновь,
Gm        Gm/E     Dm   A7         Dm          
Для чего на свете горе и любовь?

Проигрыш=Вступление

Опадают листья, им пришёл черёд...
Я не стану злиться, что уходит год
В голубое небо, в старую мечту...
Не дождусь я снега, не дождусь пургу

Да что ж мне жить заботой о своей мечте,
Когда песни спеты, да изъян в судьбе
Поживу, забуду смех и торжество,
И прощу я людям и обман, и зло

Проигрыш=Вступление

    Dm                    Gm      C         F   D/F#
Положила руку на лицо судьба,
Gm       Gm/E Dm   A7                   Dm        
Подарила серые, с зеленью, глаза...
 


 
Последние комментарии

"затронуло за живое спасибо Аркаша!"
 

"Что-то ,как-то не очень воспроизводится песенка! Может технический брак?"
 

"Прекрасное исполнение."
 

"Си бемоль начало и так далее! валенки"
 

"Что вы за подборщик вам медведь насухо наступил там другие окорды в оригинале в исполнении Муслима магомаева"
Статистика

Онлайн всего: 152
Гостей: 152
Пользователей: 0
Вход на сайт