Accordium Delectus Подборка аккордов
 
Главная > В > Весенин Андрей > Просто февраль

Андрей Весенин: Просто февраль



Смотреть в тональности Am


Вступление:

G#  C#m  F#  H  G#m   C#m/B  D#7  G#m  G#       G#  C#m  F#  H  E   C#m/B  D#7  G#m  G#m

   G#      C#m      F#                  H      G#m  
E|-------14-12---12-12-11------------12-11---------|
H|------------------------14-----------------14-12-|
G|-13-13-----------------------11-11---------------|
D|-------------------------------------------------|
A|-------------------------------------------------|
E|-------------------------------------------------|

          C#m/B    D#7                 G#m      G#  
E|-------11---------11--------------------------11-|
H|----------14---12----14-14---14-14-11-12---14----|
G|-13-13-------------------------------------------|
D|-------------------------------------------------|
A|-------------------------------------------------|
E|-------------------------------------------------|

   G#      C#m      F#                  H       E  
E|-------14-12---12-12-11------------12-11---------|
H|------------------------14-----------------14-12-|
G|-13-13-----------------------11-11---------------|
D|-------------------------------------------------|
A|-------------------------------------------------|
E|-------------------------------------------------|

          C#m/B   D#7              G#m              
E|-------11-9------11-9-9----9-9-------------------|
H|--------------12---------------11-12--11--9------|
G|-9-9---------------------------------------------|
D|-------------------------------------------------|
A|-------------------------------------------------|
E|-------------------------------------------------|

              C#m/B          D#7
Просто февраль, холодно,
            G#m         
Воет в ночи метель
         C#m     F#       
Напополам разорваны
                 H       G#   
Сердце, дыханье, день

Припев:

               C#m        F#
Как же к тебе хочется,
              H      E  
Да занесло пути!
        C#m/B D#7        
Вот оно, одиночество,
               G#m            G#
Вот он, февраль... Прости!

Как же к тебе хочется,
Да занесло пути!
Вот оно, одиночество,
                G#m               
Вот он, февраль... Прости!

Проигрыш:

   G#      C#m      F#                  H       E  
E|-------14-12---12-12-11------------12-11---------|
H|------------------------14-----------------14-12-|
G|-13-13-----------------------11-11---------------|
D|-------------------------------------------------|
A|-------------------------------------------------|
E|-------------------------------------------------|

          C#m/B   D#7              G#m              
E|-------11-9------11-9-9----9-9-------------------|
H|--------------12---------------11-12--11--9------|
G|-9-9---------------------------------------------|
D|-------------------------------------------------|
A|-------------------------------------------------|
E|-------------------------------------------------|

Греюсь теплом нежности
Наших с тобою встреч,
Чтоб для твоей верности
Искру любви сберечь

Припев.

Проигрыш:

   G#      C#m      F#                  H       E  
E|-------14-12---12-12-11------------12-11---------|
H|------------------------14-----------------14-12-|
G|-13-13-----------------------11-11---------------|
D|-------------------------------------------------|
A|-------------------------------------------------|
E|-------------------------------------------------|

          C#m/B   D#7              G#m              
E|-------11-9------11-9-9----9-9-------------------|
H|--------------12---------------11-12--11--9------|
G|-9-9---------------------------------------------|
D|-------------------------------------------------|
A|-------------------------------------------------|
E|-------------------------------------------------|

Просто февраль, холодно,
Воет в ночи метель
Напополам разорваны
Сердце, дыханье, день

Припев:

Как же к тебе хочется,
Да занесло пути!
Вот оно, одиночество,
Вот он, февраль... Прости!

Время течёт медленно,
На руку злой судьбе
Просто февраль, ветрено,
            G#m       E   
Просто хочу к тебе...
Просто февраль, ветрено,
             G#m            
Просто хочу к тебе...

Примерный вариант боя:

 


 
Последние комментарии

"чудесно...спасибо!"
 

"Чудо как хороша, я просто остолбенела, огромное спасибо автору и низкий поклон"
 

"Оч. Хорошо!"
 

"Спасибо, что добавили эту песню Владимира!"
 

"Спасибо !!!!"
Вход на сайт