Accordium Delectus Подборка аккордов
 
Главная > B > Brun Ane > Big In Japan

Ane Brun: Big In Japan

(из репертуара группы Alphaville)
 

Вступление (обозначение аккордов в данной песне):

  Dm                       Bmaj7                       

E|----------------------------------------------------|

H|-----6---6--------6---6--------6---6--------6---6---|

G|---7---7---7----7---7---7----7---7---7----7---7---7-|

D|-0------------0-------------------------------------|

A|----------------------------------------------------|

E|---------------------------6------------6-----------|

 

 Cadd9                      A7                         

E|----------------------------------------------------|

H|-----6---6--------6---6--------8---8--------8---8---|

G|---7---7---7----7---7---7----7---7---7----7---7---7-|

D|----------------------------------------------------|

A|---------------------------0------------7-----------|

E|-8------------8-------------------------------------|

 

Bmaj7                                               

E|----------------------------------------------------|

H|-----6---6--------6---6--------6---6--------6---6---|

G|---7---7---7----7---7---7----7---7---7----7---7---7-|

D|----------------------------------------------------|

A|----------------------------------------------------|

E|-6------------6------------6------------6-----------|

 

  A7                                                 

E|----------------------------------------------------|

H|-----8---8--------8---8--------8---8--------8---8---|

G|---7---7---7----7---7---7----7---7---7----7---7---7-|

D|----------------------------------------------------|

A|-0------------7------------0------------7-----------|

E|----------------------------------------------------|


Dm                             
Winter's cityside,
Bmaj7                                  Cadd9                                     A7               
Crystal bits of snowflakes all around my head and in the wind...
Dm
I had no illusions
Bmaj7                          Cadd9                                                 A7              
That I'd ever find a glimpse of summer's heatwaves in your eyes

Dm            Bmaj7            Cadd9   
You did what you did to me,
              A7       Bmaj7
Now it's history I see
            Bmaj7                   A7          
Here's my comeback on the road again

Things will happen while they can,
I will wait here for my man tonight
It's easy when you're big in Japan!

Припев:

                          Dm    Bmaj7
When your big in Japan, tonight
          Cadd9     A7    
Big in Japan, be tight
          Bmaj7                                       A7 
Big in Japan where the Eastern Sea is so blue

Big in Japan, all right,
Pay, then I'll sleep by your side
Things are easy when you're big in Japan


Neon on my naked skin
Passing silhouettes of strange illuminated mannequins
Shall I stay here at the zoo,
Shall I go and change my point of view for other ugly scenes?

You did what you did to me,
Now it's history I see
Here's my comeback on the road again

Things will happen while they can...
I will wait here for my man tonight, 
It's easy when you're big in Japan

Припев.

            A7             Dm   
Big in Japan, big in Japan...
 


 
Последние комментарии

"тут уже в этой тональности https://youtu.be/dNlDdtJ2i6c"
 

"Скачать"
 

"Песню услышал примерно год назад, но тогда найти автора и исполнителя не удалось. А песня так понравилась, что разослал ролик всем своим друзьям, желая поделиться прекрасным! И вот, слава бобу, песня стала популярной! Браво, Виктория!"
 

"Клас"
 

"Кто авторы?Хочу сделать клип."
Статистика

Онлайн всего: 91
Гостей: 91
Пользователей: 0
Вход на сайт