Accordium Delectus Подборка аккордов
 

АнимациЯ: Бег



Припев:

E|-5--------3--------1--------0-----0---------------------1-----1--1-0----------|

H|-----3--------3--------3------3-2--------------------3------3--------2--------|

G|---2---2----3---3----2---2------------2---2------3-3------2------------2------|

D|-0--------2--------0--------------------3------5---5----0---------------------|

A|----------------------------0------------------------------------0---4--------|

E|--------------------------------------1--------3------------------------------|

  Бег,     бег,     бег…     На ладони век,     тает человек,  Не замечает      

 

E|-5--------3--------1--------0-----0-------------------------1-----1--1-0------|

H|-----3--------3--------3------3-2------------------------3------3--------2----|

G|---2---2----3---3----2---2----------------2---2------3-3------2------------2--|

D|-0--------2--------0------------------------3------5---5----0-----------------|

A|----------------------------0----------------------------------------0---4----|

E|------------------------------------------1--------3--------------------------|

  Нет,     нет,     нет,     не прольётся свет,     колесница лет нас  убивает   


Dm                                   
Пока ещё не поздно
Gm/E                                                    
Бродить под небом звёздным
Dm                                        
Всё кажется неважным
A7                                         
И крайне несерьёзным

Dm                                            
Ты можешь не столкнуться,
Gm/E                                         
Идти, но разминуться
Dm                                              
С проблемой сделать выбор,
A7                                        
Не просто отмахнуться


Но попадая в омут,
Так скоро и нелепо,
Теряют люди разум,
Судьбе вверяясь слепо

Бывают и другие,
Но их не так уж много,
Мы часто узнаём их
Из строчек некролога...

Припев.

Последние герои - 
Их называют часто…
Мне кажется напрасно,
У всех свои покрои

Но главное не это,
Кто сам недокумекал:
Здесь умирать не хочет
Никто из человеков...

Проигрыш:

  Dm             Gm/E     Dm            A7                                   

E|---------------------------------------9----9----9----9----9--------------|

H|-------------------------8-5-8-5-8-5-8---11---10---11---10----------------|

G|--------------------------------------------------------------------------|

D|-7-5-7-5-7-5-7-5-7--5-----------------------------------------------------|

A|--------------------------------------------------------------------------|

E|--------------------------------------------------------------------------|

 

   Dm                  Gm       Dm            A7                              

E|--------------------------------------------9----9----9----9----9---------|

H|-10-8-10-8-10-8-10-8-10--8----8-5-8-5-8-5-8---11---10---11---10-----------|

G|--------------------------------------------------------------------------|

D|--------------------------------------------------------------------------|

A|--------------------------------------------------------------------------|

E|--------------------------------------------------------------------------|


Припев.

E|-5--------3--------1--------0-----0---------------------1-----1--1-0------|

H|-----3--------3--------3------3-2--------------------3------3--------2----|

G|---2---2----3---3----2---2------------2---2------3-3------2------------2--|

D|-0--------2--------0--------------------3------5---5----0-----------------|

A|----------------------------0------------------------------------0---4----|

E|--------------------------------------1--------3--------------------------|

  Бег,     бег,     бег…     На ладони век,     тает человек                
 


 
Последние комментарии

"... а вот в исполнениииавтора песни пол века назад... https://zaycev.net/artist/115135?spa=true&trackId..."
 

"Шедевр!!!"
 

"Нето фуфло паешь Врешь сука."
 

"С третьего аккорда начинается неправильные аккорды вы сами играете или переписываете у других?"
 

"Кто подскажет где скачать минусовку? Буду очень благодарен. Песня отличная."
Статистика

Онлайн всего: 16
Гостей: 16
Пользователей: 0
Вход на сайт