Accordium Delectus Подборка аккордов
 
Главная > А > АнимациЯ > Государство

АнимациЯ: Государство

(кавер Lumen)
 


Припев:

Bm                  G#          F#    
Здесь, типа, демократия, 
             D#m                
На самом деле царство...
Bm             G#                F#   
Я так люблю свою страну 
  D#m                       Bm                G#               F#         D#m
И ненавижу государство, государство, государство!
  Bm       G#               F#        D#m
Государство, государство!


Bm        G#        F#     D#m                
Заплати налоги и живи спокойно,
Bm                  G#                 F#     D#m
Но каждый рубль - как покойник
Bm             G#                F#    D#m
На эти деньги люди сверху
Bm G# F#               D#m                            
Нас превращают в перхоть

Проигрыш:

Bm      G#        F#      D#m      Bm      G#        F#     D#m       

E|-------------------------4-2---------------------------------------|

H|-6-6---44/4-2---2-----------6-4----6-6---4-4/4-2---2------4-2-----|

G|-----6---------5---3----3---------------6---------5---3--------5-3-|

D|-------------------------------------------------------------------|

A|-------------------------------------------------------------------|

E|-------------------------------------------------------------------|


А они проводят невнятные реформы,
Меняют облики и формы,
Кидают через одно место
И проверяют, из какого же мы теста!

Припев.

Проигрыш - 2 раза.

Заплати налоги и живи спокойно,
А платят с терроризмом войны
Подкатывает к горлу ком,
Как только вспомню про родной "Газпром"

Заплати налоги и живи спокойно,
Плевать, живёшь ли ты достойно
Ведь сохранили право за тобой молчать,
Здесь только деньги, деньги, бабки, твою мать!

Припев.

Окончание:

Bm      G#        F#      D#m      Bm      G#        F#     D#m       

E|-------------------------4-2---------------------------------------|

H|-6-6---44/4-2---2-----------6-4----6-6---4-4/4-2---2------4-2-----|

G|-----6---------5---3----3---------------6---------5---3--------5-3-|

D|-------------------------------------------------------------------|

A|-------------------------------------------------------------------|

E|-------------------------------------------------------------------|

 Bm      G#        F#      D#m      Bm      G#        F#     D#m         Bm    

E|-------------------------4-2---------------------------------------------|

H|-6-6---44/4-2---2-----------6-4----6-6---4-4/4-2---2---------4--2/2/1---|

G|-----6---------5---3----3---------------6---------5---3----3-----------3-|

D|-------------------------------------------------------------------------|

A|-------------------------------------------------------------------------|

E|-------------------------------------------------------------------------|

Примерные варианты боя:

или



 


 
Последние комментарии

"песня норм"
 

"Я бы попробовал её спеть"
 

"Пожалуйста, сделайте мобильное приложение вашего чудесного сайта. На телефоне аккорды не открываются в яндексе"
 

"Душевно"
 

"Да уж"
Статистика

Онлайн всего: 80
Гостей: 80
Пользователей: 0
Вход на сайт