Accordium Delectus Подборка аккордов
 
"
Главная > П > Пиркова Анна > Звуки северного звона

Анна Пиркова - Звуки северного звона Табулатура песни




Вступление (играется вся песня):

E|-5-----5-----5-5-7-----7-----7~~~3-----3-----3-3-5-----5-----5~|

H|-----0---0-----------0---0-----------0---0-----------0---0-----|

G|---5-------5-------5-------5-------4-------4-------4-------4---|

D|-------------------------------------------------0-------------|

A|-0---------------0---------------0-----------------------------|

E|---------------------------------------------------------------|

 

E|~1-----1-----1-1-0-----0-----0-0-0-----0-----0-0-0-----0-----0-|

H|-----0---0-----------1---1-----------0---0-----------1---1-----|

G|---2-------2-------0-------0-------1-------1-------0-------0---|

D|-0-------------------------------------------------------------|

A|-----------------0-------------------------------5-------------|

E|---------------------------------0-----------------------------|

 

E|~1-----1-----1-1-0-----0-----0-0-0-----0-------0---------------|

H|-----0---0-----------1---1-----------0---0---0-----------------|

G|---2-------2-------0-------0-------1-------1-------------------|

D|-0-------------------------------------------------------------|

A|-----------------0---------------------------------------------|

E|---------------------------------0-----------------------------|


Звуки северного звона
Разлилися по лесам
Если где-то плач и стоны,
Матерь Божья в помощь там
Если где-то плач и стоны,
Матерь Божья в помощь там

Когда ляжет скорбь на сердце,
Волю дам своим слезам
Если некуда уж деться,
Матерь Божья в помощь там
Если некуда уж деться,
Матерь Божья в помощь там

С Нею страха не узнаем,
С Нею и под небом храм,
Если духом припадаем
Ко Спасителя стопам
Если духом припадаем
Ко Спасителя стопам

Звуки северного звона
Разлилися по лесам
Если где-то плач и стоны,
Матерь Божья в помощь там
Если где-то плач и стоны,
Матерь Божья в помощь там
 
Последние комментарии

"Здравствуйте! В тексте написан аккорд Gm/E, а при наведении мышкой выскакивает Em7-5. Что должно быть на самом деле?"
 

"Очень красивая песня"
 

"Понимаю песню."
 

"Амэнь!"
 

"В Иркутске опять дождь и монотонный и ленивый)))"
Настройка гитары
1-ая струна E (ми)  

2-ая струна H (си)  

3-я струна G (соль) 

4-ая струна D (ре) 

5-ая струна A (ля) 

6-ая струна E (ми) 
Статистика

Онлайн всего: 74
Гостей: 74
Пользователей: 0
Вход на сайт