Accordium Delectus Подборка аккордов
 
Главная > В > Вески Анне > Добрые сказки детства

Анне Вески: Добрые сказки детства



   G                                    D             

E|-------3-----------3-----------3------------------|

H|-----0---0-------0---0-------0---0------3---3---3-|

G|---0-------0---0-------0---0-------0---2---2---2--|

D|--------------------------------------0---2---4---|

A|--------------------------------------------------|

E|-3-----------3-----------3------------------------|

 

   G                                                      

E|-------3------------3--------------3------------3-----|

H|-----0---0--------0---0----1-0---0---0--------0---0---|

G|---0-------0----0-------0--0-0-0-------0----0-------0-|

D|------------------------------------------------------|

A|---------------------------3--------------------------|

E|-3------------3--------------3------------3-----------|

В детстве мы   жили    -    были                         

 

   G                         C            E               

E|-------3------------3------------0--------------------|

H|-----0---0--------3---3--------1---1------0---0---0---|

G|---0-------0----4-------4----0-------0---1---2---4----|

D|----------------------------------------2---4---6-----|

A|--------------2------------3--------------------------|

E|-3----------------------------------------------------|

 Сказочно      были    -    жили                         

 

  Am7          D7           Hm7          E7              

E|-------0------------2------------2------------0-------|

H|-----1---1--------1---1--------3---3--------0---0-----|

G|---0-------0----2-------2----2-------2----1-------1---|

D|--------------0---------------------------------------|

A|-0-------------------------2--------------------------|

E|----------------------------------------0-------------|

В детстве все звёзды         ярче     светили            

 

  Am7          D7            G                           

E|-------0------------2------------3--------------------|

H|-----1---1--------1---1--------0---0------0---0---0---|

G|---0-------0----2-------2----0-------0---0---0---0----|

D|--------------0---------------------------------------|

A|-0------------------------------------------0---2-----|

E|---------------------------3------------3-------------|

  Были       дома       большими                          

 

   C           F#7          Hm7          E7              

E|-------0------------0------------2------------0-------|

H|-----1---1--------2---2--------3---3--------0---0-----|

G|---0-------0----3-------3----2-------2----1-------1---|

D|------------------------------------------------------|

A|-3-------------------------2--------------------------|

E|--------------2-------------------------0-------------|

В детстве все звёзды         ярче     светили            

 

  Am7          D7            G    D                     

E|-------0------------2------5-3------------------------|

H|-----1---1--------1---1----0-0----3---3---3-----------|

G|---0-------0----2-------2--0-----2---2---2------------|

D|--------------0-----------------0---2---4-------------|

A|-0----------------------------------------------------|

E|---------------------------3-3------------------------|

  Были       дома       большими                         

Шли мы легко за днями,
Щедрой была дорога
Ах, как сияло солнце над нами,
Как его было много!
Ах, как сияло солнце над нами,
Как его было много!


Как наше сердце билось,
Как нам светло мечталось!
Что-то исчезло, что-то забылось,
Многое в нас осталось
Что-то исчезло, что-то забылось,
Многое в нас осталось


Солнце по небу катит,
Вновь ему в небе тесно
Пусть в человеке светят, не гаснут
Добрые сказки детства!
Пусть в человеке светят, не гаснут

  Am7          D7            G        

E|-------0------------2------5-3-3-3-|

H|-----1---1--------1---1----0-0-0-0-|

G|---0-------0----2-------2--0-------|

D|--------------0--------------------|

A|-0---------------------------2-0---|

E|---------------------------3-----3-|

  Были       дома       большими       

 


 
Последние комментарии

"Душевная песня,👍🏻👍🏻👍🏻!! Жизненная!!"
 

"Кто автор подбора?"
 

"Великолепная песня и исполнение!!!"
 

"всем привет. у кого есть минусовка?"
 

"Классно !!!"
Статистика

Онлайн всего: 147
Гостей: 147
Пользователей: 0
Вход на сайт