Accordium Delectus Подборка аккордов
 
Главная > А > Антиреспект > Тишины хочу

Антиреспект: Тишины хочу



Вступление - 2 раза (играется куплет):

  Em              Am6            H7(2)            Em                
E|-------3-----0---------2-----0---------2---------------3>2-0-----|
H|-----0---------------1-----------------------4-------0-------0---|
G|---0-------0---0---2-------2---2-----2-----2---2---0-----------0-|
D|-2---------------------------------4-------------2---------------|
A|-----------------0---------------2-------------------------------|
E|-----------------------------------------------------------------|
  C+11            Am6            H7(2)            Em                
E|-------2-----0---------2-----0---------2---------------3>2-0-----|
H|-----1---------------1-----------------------4-------0-------0---|
G|---0-------0---0---2-------2---2-----2-----2---2---0-----------0-|
D|-----------------------------------4-------------2---------------|
A|-3---------------0---------------2-------------------------------|
E|-----------------------------------------------------------------|

 Em                           Am6                            
В отблеске луны тишины неповторимый свет,
H7(2)                        Em                                                      
Что ложится плавно на тьму пустынных улиц,
C+11                                Am6                           
И только храма размытый силуэт,
H7(2)                        Em                                        
Светят фонари, надо мной сутулясь

Тишины хочу, пусть мчатся даты,
Устремлюсь вдаль далёкую прохладным взором
В этом мире, где без вины виноватые,
Без крови, без приговоров

Закурю и в тишине прошепчу слова,
Те самые, которых никто не узнает,
И заплачет душа, как будто вдова,
И ночь тишиною растает

Тишины хочу от зари до зари,
Купола пронзают неба колпак
Тишина, и лишь где-то вдали
Слышится лай собак...

Припев - 2 раза:

  Em              Am6             D7             Gmaj7    H7        
E|-------3-----0---------2-----0---------2-----0---------2-------2-|
H|-----0---------------1---------------1---------1-----0-------0---|
G|---0-------0---0---2-------2---2---2-------2-------0-------2-----|
D|-2-------------------------------0-------------------------------|
A|-----------------0---------------------------------------2-------|
E|-------------------------------------------------3---------------|
Тишины,         тишины хочу,    тишины  в молчании ско--ло--том

       Em              Am6            H7(2)            Em      H7             
E|-------3>2-0-----------2-----0---------2---------------0-------2-|
H|-----0-------0-------1-----------------------4-------0-------0---|
G|---0-----------0---2-------2---2-----2-----2---2---0-------2-----|
D|-2---------------------------------4-------------2---------------|
A|-----------------0---------------2-----------------------2-------|
E|-----------------------------------------------------------------|
Лёгким ветром  вольно пролечу  над крестами, покрытыми золотом

  Em              Am6             D7             Gmaj7    H7        
E|-------3-----0---------2-----0---------2-----0---------2-------2-|
H|-----0---------------1---------------1---------1-----0-------0---|
G|---0-------0---0---2-------2---2---2-------2-------0-------2-----|
D|-2-------------------------------0-------------------------------|
A|-----------------0---------------------------------------2-------|
E|-------------------------------------------------3---------------|
Тишины хочу,  чтобы допьяна,    тишины, и не жаль память стёртую,

  Em              Am6            H7(2)            Em                
E|-------3>2-0-----------2-----0---------2---------------3>2-0-----|
H|-----0-------0-------1-----------------------4-------0-------0---|
G|---0-----------0---2-------2---2-----2-----2---2---0-----------0-|
D|-2---------------------------------4-------------2---------------|
A|-----------------0---------------2-------------------------------|
E|-----------------------------------------------------------------|
Чтобы осень листьями жёлтыми  мне накрыла душу распростёртую


Небеса седые прольют дождливым холодом...
Тишины хочу в молчании сколотом!
Сердца стук бьётся в ритм с поездом скорым,
А в душе струны звенят гитарным перебором

Вольный ветер подул, листья с деревьев сбросив...
Тишины хочу, чтоб светом в осень!
Сигаретный дым туманом вьётся,
Пусть проплачется небо, дождем прольётся

Тишины хочу в этом мире шатком,
Тишины, и с неба слезы украдкой
Золотая осень осыпает закладки,
Оставляя листья жёлтые в моей тетрадке

Всё пройдёт, и дождь прольётся,
Всё плохое улетит с тучами и облаками,
И засверкает на солнце
Этот мир золотыми куполами

Припев - 3 раза.

Окончание:

  Em              Am6             D7             Gmaj7    H7        
E|-------3-----0---------2-----0---------2-----0---------2-------2-|
H|-----0---------------1---------------1---------1-----0-------0---|
G|---0-------0---0---2-------2---2---2-------2-------0-------2-----|
D|-2-------------------------------0-------------------------------|
A|-----------------0---------------------------------------2-------|
E|-------------------------------------------------3---------------|

       Em              Am6            H7(2)            Em      H7             
E|-------3>2-0-----------2-----0---------2---------------0-------2-|
H|-----0-------0-------1-----------------------4-------0-------0---|
G|---0-----------0---2-------2---2-----2-----2---2---0-------2-----|
D|-2---------------------------------4-------------2---------------|
A|-----------------0---------------2-----------------------2-------|
E|-----------------------------------------------------------------|

  Em              Am6             D7             Gmaj7    H7        
E|-------3-----0---------2-----0---------2-----0---------2-------2-|
H|-----0---------------1---------------1---------1-----0-------0---|
G|---0-------0---0---2-------2---2---2-------2-------0-------2-----|
D|-2-------------------------------0-------------------------------|
A|-----------------0---------------------------------------2-------|
E|-------------------------------------------------3---------------|

  Em              Am6            H7(2)            Em                
E|-------3>2-0-----------2-----0---------2-------------------------|
H|-----0-------0-------1-----------------------4-------------------|
G|---0-----------0---2-------2---2-----2-----2---2-----------------|
D|-2---------------------------------4-------------2---------------|
A|-----------------0---------------2-------------------------------|
E|-----------------------------------------------------------------|
 


 
Последние комментарии

"Ох, и сильная вещь ! Жизнеутверждающе !"
 

"Проникновенная песня ! Хорошо пробрало !"
 

"Всем волонтерам необходимо выучить к 10 декабря"
 

"СЛАВА НА ВСЕ ВРЕМЕНА"
 

"шикарная песня, оригинал бомба, этот вариант не менее опасен!"
Статистика

Онлайн всего: 99
Гостей: 99
Пользователей: 0
Вход на сайт