Accordium Delectus Подборка аккордов
 
Главная > Б > Би-2 > Моя любовь

Би-2: Моя любовь



Вступление:

  Hm                                         Em          Hm       

E|---------------------------------------------------------------|

H|---------------------------------------------------------------|

G|-------------------------------------2-2--------------2--------|

D|----------2--4--4-------------2--4--------4-5----5-5----4--2---|

A|-2--5-2-5------------2--5-2-5--------------------------------5-|

E|---------------------------------------------------------------|


Hm                                  
У героев стынет кровь,
Hm                                         Em
Разбиваются и вновь идут ко дну,
              Hm
Идут ко дну

Успокоит океан
И расстелет по волнам свою вину,
Свою вину

Припев:

 C                    Hm     
Кон, кончится плёнка,
 C                       F#   
Ты, ты ждёшь ребёнка
solo                   
От меня

Проигрыш:

  Hm                                         Em          Hm       

E|---------------------------------------------------------------|

H|---------------------------------------------------------------|

G|-------------------------------------2-2--------------2--------|

D|----------2--4--4-------------2--4--------4-5----5-5----4--2---|

A|-2--5-2-5------------2--5-2-5--------------------------------5-|

E|---------------------------------------------------------------|

                                                                  Мо-я  любовь, мо-я любовь        


Уходили в плаванье
За чужие гавани вести войну,
Вести войну

Но известно лишь волнам,
Что оставит океан тебя одну,
Тебя одну

Припев.

Проигрыш:

  Hm                                         Em          Hm             

E|---------------------------------------------------------------------|

H|---------------------------------------------------------------------|

G|-------------------------------------2-2---------7-6---7-6-2---------|

D|----------2--4--4-------------2--4--------4-5--5-----5-------4---2---|

A|-2--5-2-5------------2--5-2-5--------------------------------------5-|

E|---------------------------------------------------------------------|

                                                                  Мо-я любовь,        мо-я любовь              

     Hm      F#       Em             F#     

E|-7-------9-------12-10-9>7-6>7-9-2-|

H|----7-------8----------------------|

G|--------------------11-9>7-6>7-9-3-|

D|-----------------------------------|

A|-----------------------------------|

E|-----------------------------------|

    Hm              F#             Em                 F#  

E|-6-6>7-----------7-7>9-----------12--15-14-12>10-10--2-|

H|-------7-5-------------7-5-----------------------------|

G|-6-6>7------7----7-7>9------7------------------------3-|

D|-------------------------------------------------------|

A|-------------------------------------------------------|

E|-------------------------------------------------------|


Припев.

Окончание:

2 раза:

  Hm                                         Em          Hm       

E|---------------------------------------------------------------|

H|---------------------------------------------------------------|

G|-------------------------------------2-2--------------2--------|

D|----------2--4--4-------------2--4--------4-5----5-5----4--2---|

A|-2--5-2-5------------2--5-2-5--------------------------------5-|

E|---------------------------------------------------------------|

                                                                  Мо-я  любовь, мо-я любовь        
2 раза:

  Hm                                         Em          Hm       

E|---------------------------------------------------------------|

H|---------------------------------------------------------------|

G|-------------------------------------2-2--------------2--------|

D|----------2--4--4-------------2--4--------4-5----5-5----4--2---|

A|-2--5-2-5------------2--5-2-5--------------------------------5-|

E|---------------------------------------------------------------|

Бой на гитаре (примерный вариант):

 


 
Последние комментарии

"Спасибо! отличная песня."
 

"Интересно кто так бездарно подбирает?! В оригинале слабо что ли?"
 

"Простая и в тоже время прекрасная,душевная песня.Спасибо!"
 

"Дзякуй"
 

"Показать окорды"
Статистика

Онлайн всего: 70
Гостей: 70
Пользователей: 0
Вход на сайт