Accordium Delectus Подборка аккордов
 
Главная > С > Секрет > Блюз бродячих собак

Бит-квартет Секрет: Блюз бродячих собак



Вступление (примерный вариант):

E|---------------------------------------6--------|

H|---------------------------------------4--------|

G|---------------------------------------5--------|

D|---------3------------------------3----5--------|

A|-3--5--6-----3--3-5--6---3--5--6----3-----------|

E|------------------------------------------------|

 

E|---------------------------------------5--------|

H|---------------------------------------4--------|

G|---------------------------------------5--------|

D|---------3------------------------3----5--------|

A|-3--5--6-----3--3-5--6---3--5--6----3-----------|

E|------------------------------------------------|

 

E|---------------------------------------6--------|

H|---------------------------------------4--------|

G|---------------------------------------5--------|

D|---------3------------------------3----5--------|

A|-3--5--6-----3--3-5--6---3--5--6----3-----------|

E|------------------------------------------------|

 

E|-------------------------------------6--6--6--6-|

H|-------------------------------------6--6--6--6-|

G|-------------------------------------4--4--4--4-|

D|---------3------------------------3--5--5--5--5-|

A|-3--5--6-----3--3-5--6---3--5--6----------------|

E|------------------------------------------------|


 Cm                
Я уличный пёс,
                   F               
Подвал, в котором я рос,
           Fm             Gm7       Cm  Cm7
Бывал со мною часто жесток

Учил быть первым всегда,
От ушей до хвоста,
И ненавидеть хозяйский свисток

      Fm             Gm
Мой первый педагог
      Fm                    Gm 
Отдавал мне всё, что мог,
    Cm         Cm7/B        G#7
Он был героем уличных драк

            F                       
Он твердил, что только тот
         Fm                     
Побеждает, в ком живёт
        G#7      G7       Cm  G+9
Блюз бродячих собак

Припев: 

   C              
Удача за нас,
            F                    
Мы уберём их на "раз",
   C                               
И это, без сомнения, так!

        F                   
Нам дышится в такт,
         Fm             
И ускоряет наш шаг
 G#7      G7        Cm
Блюз бродячих собак


Я не считал своих врагов,
Я не боялся их клыков,
Я не умел ходить с поджатым хвостом

Из всего, что в жизни есть,
Ценилась верность и честь,
А всё остальное - потом

И в каждом новом бою,
В борьбе за шкуру свою
Со мною были друзья, это факт

Мы свято верили в то,
Что не забудет никто
Блюз бродячих собак

Припев.

Нас ненавидели те,
Кто труслив в темноте,
Они считали - мы мешаем им жить

И лишь с учётом того,
Что десять против одного,
Нас в результате смогли победить

И я дружу теперь с котом,
Я дверь не путаю с окном,
Мне доказали, что стар я для драк

И всё реже во сне,
Теперь приходит ко мне
Блюз бродячих собак

Припев.

 G#7      G7        Cm 
Блюз бродячих собак,
                       G#7      G7        Cm-Hm-Bm-Hm-Cm
Блюз бродячих собак

Примерный вариант боя:

 
Последние комментарии

"Мне всегда слышалось " зато в руках заветный диск". И непонимание того, про кого все же песня: про расклейщиков афиш или коллекционеров разной атрибутики поп-идолов?"
 

"СУПЕР!"
 

"Спасибо!"
 

"На яндексмузыке, в сборниках Эдуарда Артемьева, эта песня длиннее - из 3-х куплетов. Добрая память замечательному композитору."
 

"Супер, вспомнил забытую вещь"
Вход на сайт